  0
SECTION
  2
HEADER
  9
$ACADVER
  1
AC1006
  9
$EXTMIN
 10
-5.001496
 20
-3.536850
  9
$EXTMAX
 10
5.001496
 20
3.536850
  9
$LTSCALE
 40
0.000394
  9
$PDMODE
 70
    35
  9
$PDSIZE
 40
0.000315
  0
ENDSEC
  0
SECTION
  2
TABLES
  0
TABLE
  2
LTYPE
 70
     9
  0
LTYPE
  2
CONTINUOUS
 70
    64
  3
Solid line
 72
    65
 73
     0
 40
0.000000
  0
LTYPE
  2
DASHED
 70
    64
  3
__ __ __ __ __ __ __ __ __ __ __ __ __ __ __
 72
    65
 73
     2
 40
0.000003
 49
0.000002
 49
-0.000001
  0
LTYPE
  2
HIDDEN
 70
    64
  3
 _ _ _ _ _ _ _ _ _ _ _ _ _ _ _ _ _ _ _ _ _ _
 72
    65
 73
     2
 40
0.000001
 49
0.000001
 49
-0.000000
  0
LTYPE
  2
CENTER
 70
    64
  3
____ _ ____ _ ____ _ ____ _ ____ _ ____ _ ____
 72
    65
 73
     4
 40
0.000008
 49
0.000005
 49
-0.000001
 49
0.000001
 49
-0.000001
  0
LTYPE
  2
PHANTOM
 70
    64
  3
_____ _ _ _____ _ _ _____ _ _ _____ _ _ ____
 72
    65
 73
     6
 40
0.000010
 49
0.000005
 49
-0.000001
 49
0.000001
 49
-0.000001
 49
0.000001
 49
-0.000001
  0
LTYPE
  2
DOT
 70
    64
  3
...............................................
 72
    65
 73
     2
 40
0.000001
 49
0.000000
 49
-0.000001
  0
LTYPE
  2
DASHDOT
 70
    64
  3
__ . __ . __ . __ . __ . __ . __ . __ . __ . __
 72
    65
 73
     4
 40
0.000004
 49
0.000002
 49
-0.000001
 49
0.000000
 49
-0.000001
  0
LTYPE
  2
BORDER
 70
    64
  3
__ __ . __ __ . __ __ . __ __ . __ __ . __ __
 72
    65
 73
     6
 40
0.000007
 49
0.000002
 49
-0.000001
 49
0.000002
 49
-0.000001
 49
0.000000
 49
-0.000001
  0
LTYPE
  2
DIVIDE
 70
    64
  3
__ . . __ . . __ . . __ . . __ . . __ . . __
 72
    65
 73
     6
 40
0.000005
 49
0.000002
 49
-0.000001
 49
0.000000
 49
-0.000001
 49
0.000000
 49
-0.000001
  0
LTYPE
  2
DOTDOT
 70
    64
  3
 . .  . .  . .  . .  . .  . . 
 72
    65
 73
     5
 40
0.000002
 49
-0.000001
 49
0.000000
 49
-0.000001
 49
0.000000
 49
-0.000001
  0
ENDTAB
  0
TABLE
  2
STYLE
 70
     2
  0
STYLE
 70
     0
  2
SN0
 40
0.000000
 41
0.000004
 50
0.000000
 71
     0
 42
0.000000
  3
ROMANS
  0
STYLE
 70
    68
  2
SV0
 40
0.000000
 41
0.000004
 50
0.000000
 71
     0
 42
0.000000
  3
ROMANS
  0
ENDTAB
  0
TABLE
  2
LAYER
 70
    25
  0
LAYER
  2
FOREGROUND
 70
    64
 62
     7
  6
CONTINUOUS
  0
LAYER
  2
BACKGROUND
 70
    65
 62
    -7
  6
CONTINUOUS
  0
LAYER
  2
EBENE_1
 70
    64
 62
     7
  6
CONTINUOUS
  0
LAYER
  2
51
 70
    64
 62
     7
  6
CONTINUOUS
  0
LAYER
  2
100
 70
    64
 62
     7
  6
CONTINUOUS
  0
LAYER
  2
50
 70
    64
 62
     7
  6
CONTINUOUS
  0
LAYER
  2
101
 70
    64
 62
     7
  6
CONTINUOUS
  0
LAYER
  2
31
 70
    64
 62
     7
  6
CONTINUOUS
  0
LAYER
  2
102
 70
    64
 62
     7
  6
CONTINUOUS
  0
LAYER
  2
103
 70
    64
 62
     7
  6
CONTINUOUS
  0
LAYER
  2
104
 70
    64
 62
     7
  6
CONTINUOUS
  0
LAYER
  2
105
 70
    64
 62
     7
  6
CONTINUOUS
  0
LAYER
  2
106
 70
    64
 62
     7
  6
CONTINUOUS
  0
LAYER
  2
107
 70
    64
 62
     7
  6
CONTINUOUS
  0
LAYER
  2
108
 70
    64
 62
     7
  6
CONTINUOUS
  0
LAYER
  2
120
 70
    64
 62
     7
  6
CONTINUOUS
  0
LAYER
  2
110
 70
    64
 62
     7
  6
CONTINUOUS
  0
LAYER
  2
111
 70
    64
 62
     7
  6
CONTINUOUS
  0
LAYER
  2
112
 70
    64
 62
     7
  6
CONTINUOUS
  0
LAYER
  2
113
 70
    64
 62
     7
  6
CONTINUOUS
  0
LAYER
  2
114
 70
    64
 62
     7
  6
CONTINUOUS
  0
LAYER
  2
115
 70
    64
 62
     7
  6
CONTINUOUS
  0
LAYER
  2
33
 70
    64
 62
     7
  6
CONTINUOUS
  0
LAYER
  2
35
 70
    64
 62
     7
  6
CONTINUOUS
  0
LAYER
  2
32
 70
    64
 62
     7
  6
CONTINUOUS
  0
ENDTAB
  0
ENDSEC
  0
SECTION
  2
ENTITIES
  0
POLYLINE
  8
EBENE_1
  6
CONTINUOUS
 66
     1
 40
0.003000
 41
0.003000
  0
VERTEX
  8
EBENE_1
  6
CONTINUOUS
 10
-3.493457
 20
2.497138
  0
VERTEX
  8
EBENE_1
  6
CONTINUOUS
 10
-3.410291
 20
2.497138
  0
SEQEND
  8
0
  0
POLYLINE
  8
EBENE_1
  6
CONTINUOUS
 66
     1
 40
0.003000
 41
0.003000
  0
VERTEX
  8
EBENE_1
  6
CONTINUOUS
 10
-3.493457
 20
2.326091
  0
VERTEX
  8
EBENE_1
  6
CONTINUOUS
 10
-3.410291
 20
2.326091
  0
SEQEND
  8
0
  0
POLYLINE
  8
EBENE_1
  6
CONTINUOUS
 66
     1
 40
0.003000
 41
0.003000
  0
VERTEX
  8
EBENE_1
  6
CONTINUOUS
 10
-1.817988
 20
2.512626
  0
VERTEX
  8
EBENE_1
  6
CONTINUOUS
 10
-1.702669
 20
2.512626
  0
SEQEND
  8
0
  0
POLYLINE
  8
EBENE_1
  6
CONTINUOUS
 66
     1
 40
0.003000
 41
0.003000
  0
VERTEX
  8
EBENE_1
  6
CONTINUOUS
 10
-1.817988
 20
2.310602
  0
VERTEX
  8
EBENE_1
  6
CONTINUOUS
 10
-1.702669
 20
2.310602
  0
SEQEND
  8
0
  0
POLYLINE
  8
EBENE_1
  6
CONTINUOUS
 66
     1
 40
0.003000
 41
0.003000
  0
VERTEX
  8
EBENE_1
  6
CONTINUOUS
 10
-3.494803
 20
1.043768
  0
VERTEX
  8
EBENE_1
  6
CONTINUOUS
 10
-3.387902
 20
1.043768
  0
SEQEND
  8
0
  0
POLYLINE
  8
EBENE_1
  6
CONTINUOUS
 66
     1
 40
0.003000
 41
0.003000
  0
VERTEX
  8
EBENE_1
  6
CONTINUOUS
 10
-3.494803
 20
0.833331
  0
VERTEX
  8
EBENE_1
  6
CONTINUOUS
 10
-3.387902
 20
0.833331
  0
SEQEND
  8
0
  0
POLYLINE
  8
EBENE_1
  6
CONTINUOUS
 66
     1
 40
0.003000
 41
0.003000
  0
VERTEX
  8
EBENE_1
  6
CONTINUOUS
 10
-1.801996
 20
1.076598
  0
VERTEX
  8
EBENE_1
  6
CONTINUOUS
 10
-1.677417
 20
1.076598
  0
SEQEND
  8
0
  0
POLYLINE
  8
EBENE_1
  6
CONTINUOUS
 66
     1
 40
0.003000
 41
0.003000
  0
VERTEX
  8
EBENE_1
  6
CONTINUOUS
 10
-1.801996
 20
0.800504
  0
VERTEX
  8
EBENE_1
  6
CONTINUOUS
 10
-1.677417
 20
0.800504
  0
SEQEND
  8
0
  0
POLYLINE
  8
EBENE_1
  6
CONTINUOUS
 66
     1
 40
0.003000
 41
0.003000
  0
VERTEX
  8
EBENE_1
  6
CONTINUOUS
 10
-3.493457
 20
-0.482657
  0
VERTEX
  8
EBENE_1
  6
CONTINUOUS
 10
-3.385039
 20
-0.482657
  0
SEQEND
  8
0
  0
POLYLINE
  8
EBENE_1
  6
CONTINUOUS
 66
     1
 40
0.003000
 41
0.003000
  0
VERTEX
  8
EBENE_1
  6
CONTINUOUS
 10
-3.493457
 20
-0.754713
  0
VERTEX
  8
EBENE_1
  6
CONTINUOUS
 10
-3.385039
 20
-0.754713
  0
SEQEND
  8
0
  0
POLYLINE
  8
EBENE_1
  6
CONTINUOUS
 66
     1
 40
0.003000
 41
0.003000
  0
VERTEX
  8
EBENE_1
  6
CONTINUOUS
 10
-1.806539
 20
-0.465823
  0
VERTEX
  8
EBENE_1
  6
CONTINUOUS
 10
-1.594587
 20
-0.465823
  0
SEQEND
  8
0
  0
POLYLINE
  8
EBENE_1
  6
CONTINUOUS
 66
     1
 40
0.003000
 41
0.003000
  0
VERTEX
  8
EBENE_1
  6
CONTINUOUS
 10
-1.806539
 20
-0.771547
  0
VERTEX
  8
EBENE_1
  6
CONTINUOUS
 10
-1.594587
 20
-0.771547
  0
SEQEND
  8
0
  0
POLYLINE
  8
EBENE_1
  6
CONTINUOUS
 66
     1
 40
0.003000
 41
0.003000
  0
VERTEX
  8
EBENE_1
  6
CONTINUOUS
 10
1.129189
 20
2.564476
  0
VERTEX
  8
EBENE_1
  6
CONTINUOUS
 10
1.234744
 20
2.564476
  0
SEQEND
  8
0
  0
POLYLINE
  8
EBENE_1
  6
CONTINUOUS
 66
     1
 40
0.003000
 41
0.003000
  0
VERTEX
  8
EBENE_1
  6
CONTINUOUS
 10
1.129189
 20
2.258752
  0
VERTEX
  8
EBENE_1
  6
CONTINUOUS
 10
1.234744
 20
2.258752
  0
SEQEND
  8
0
  0
POLYLINE
  8
EBENE_1
  6
CONTINUOUS
 66
     1
 40
0.003000
 41
0.003000
  0
VERTEX
  8
EBENE_1
  6
CONTINUOUS
 10
2.831764
 20
2.581311
  0
VERTEX
  8
EBENE_1
  6
CONTINUOUS
 10
3.063079
 20
2.581311
  0
SEQEND
  8
0
  0
POLYLINE
  8
EBENE_1
  6
CONTINUOUS
 66
     1
 40
0.003000
 41
0.003000
  0
VERTEX
  8
EBENE_1
  6
CONTINUOUS
 10
2.831764
 20
2.241917
  0
VERTEX
  8
EBENE_1
  6
CONTINUOUS
 10
3.063079
 20
2.241917
  0
SEQEND
  8
0
  0
POLYLINE
  8
EBENE_1
  6
CONTINUOUS
 66
     1
 40
0.003000
 41
0.003000
  0
VERTEX
  8
EBENE_1
  6
CONTINUOUS
 10
1.130535
 20
0.768854
  0
VERTEX
  8
EBENE_1
  6
CONTINUOUS
 10
1.270941
 20
0.768854
  0
SEQEND
  8
0
  0
POLYLINE
  8
EBENE_1
  6
CONTINUOUS
 66
     1
 40
0.003000
 41
0.003000
  0
VERTEX
  8
EBENE_1
  6
CONTINUOUS
 10
1.130535
 20
1.108248
  0
VERTEX
  8
EBENE_1
  6
CONTINUOUS
 10
1.270941
 20
1.108248
  0
SEQEND
  8
0
  0
POLYLINE
  8
EBENE_1
  6
CONTINUOUS
 66
     1
 40
0.003000
 41
0.003000
  0
VERTEX
  8
EBENE_1
  6
CONTINUOUS
 10
2.806394
 20
1.145165
  0
VERTEX
  8
EBENE_1
  6
CONTINUOUS
 10
3.081260
 20
1.145165
  0
SEQEND
  8
0
  0
POLYLINE
  8
EBENE_1
  6
CONTINUOUS
 66
     1
 40
0.003000
 41
0.003000
  0
VERTEX
  8
EBENE_1
  6
CONTINUOUS
 10
2.806394
 20
0.731933
  0
VERTEX
  8
EBENE_1
  6
CONTINUOUS
 10
3.081260
 20
0.731933
  0
SEQEND
  8
0
  0
POLYLINE
  8
EBENE_1
  6
CONTINUOUS
 66
     1
 40
0.003000
 41
0.003000
  0
VERTEX
  8
EBENE_1
  6
CONTINUOUS
 10
1.133787
 20
-0.412067
  0
VERTEX
  8
EBENE_1
  6
CONTINUOUS
 10
1.271059
 20
-0.412067
  0
SEQEND
  8
0
  0
POLYLINE
  8
EBENE_1
  6
CONTINUOUS
 66
     1
 40
0.003000
 41
0.003000
  0
VERTEX
  8
EBENE_1
  6
CONTINUOUS
 10
1.133787
 20
-0.825299
  0
VERTEX
  8
EBENE_1
  6
CONTINUOUS
 10
1.271059
 20
-0.825299
  0
SEQEND
  8
0
  0
POLYLINE
  8
EBENE_1
  6
CONTINUOUS
 66
     1
 40
0.003000
 41
0.003000
  0
VERTEX
  8
EBENE_1
  6
CONTINUOUS
 10
3.131764
 20
-0.332488
  0
VERTEX
  8
EBENE_1
  6
CONTINUOUS
 10
2.795063
 20
-0.332488
  0
SEQEND
  8
0
  0
POLYLINE
  8
EBENE_1
  6
CONTINUOUS
 66
     1
 40
0.003000
 41
0.003000
  0
VERTEX
  8
EBENE_1
  6
CONTINUOUS
 10
3.131764
 20
-0.904882
  0
VERTEX
  8
EBENE_1
  6
CONTINUOUS
 10
2.795063
 20
-0.904882
  0
SEQEND
  8
0
  0
POLYLINE
  8
EBENE_1
  6
CONTINUOUS
 66
     1
 40
0.003000
 41
0.003000
  0
VERTEX
  8
EBENE_1
  6
CONTINUOUS
 10
-3.493457
 20
-1.993390
  0
VERTEX
  8
EBENE_1
  6
CONTINUOUS
 10
-3.410291
 20
-1.993390
  0
SEQEND
  8
0
  0
POLYLINE
  8
EBENE_1
  6
CONTINUOUS
 66
     1
 40
0.003000
 41
0.003000
  0
VERTEX
  8
EBENE_1
  6
CONTINUOUS
 10
-3.493457
 20
-2.164433
  0
VERTEX
  8
EBENE_1
  6
CONTINUOUS
 10
-3.410291
 20
-2.164433
  0
SEQEND
  8
0
  0
POLYLINE
  8
EBENE_1
  6
CONTINUOUS
 66
     1
 40
0.003000
 41
0.003000
  0
VERTEX
  8
EBENE_1
  6
CONTINUOUS
 10
-1.817988
 20
-1.977902
  0
VERTEX
  8
EBENE_1
  6
CONTINUOUS
 10
-1.702669
 20
-1.977902
  0
SEQEND
  8
0
  0
POLYLINE
  8
EBENE_1
  6
CONTINUOUS
 66
     1
 40
0.003000
 41
0.003000
  0
VERTEX
  8
EBENE_1
  6
CONTINUOUS
 10
-1.817988
 20
-2.179921
  0
VERTEX
  8
EBENE_1
  6
CONTINUOUS
 10
-1.702669
 20
-2.179921
  0
SEQEND
  8
0
  0
POLYLINE
  8
EBENE_1
  6
CONTINUOUS
 66
     1
 40
0.003000
 41
0.003000
  0
VERTEX
  8
EBENE_1
  6
CONTINUOUS
 10
1.129189
 20
-1.973693
  0
VERTEX
  8
EBENE_1
  6
CONTINUOUS
 10
1.236091
 20
-1.973693
  0
SEQEND
  8
0
  0
POLYLINE
  8
EBENE_1
  6
CONTINUOUS
 66
     1
 40
0.003000
 41
0.003000
  0
VERTEX
  8
EBENE_1
  6
CONTINUOUS
 10
1.129189
 20
-2.184130
  0
VERTEX
  8
EBENE_1
  6
CONTINUOUS
 10
1.236091
 20
-2.184130
  0
SEQEND
  8
0
  0
POLYLINE
  8
EBENE_1
  6
CONTINUOUS
 66
     1
 40
0.003000
 41
0.003000
  0
VERTEX
  8
EBENE_1
  6
CONTINUOUS
 10
2.822000
 20
-1.940866
  0
VERTEX
  8
EBENE_1
  6
CONTINUOUS
 10
2.963413
 20
-1.940866
  0
SEQEND
  8
0
  0
POLYLINE
  8
EBENE_1
  6
CONTINUOUS
 66
     1
 40
0.003000
 41
0.003000
  0
VERTEX
  8
EBENE_1
  6
CONTINUOUS
 10
2.822000
 20
-2.216957
  0
VERTEX
  8
EBENE_1
  6
CONTINUOUS
 10
2.963413
 20
-2.216957
  0
SEQEND
  8
0
  0
POLYLINE
  8
EBENE_1
  6
CONTINUOUS
 66
     1
 40
0.003000
 41
0.003000
  0
VERTEX
  8
EBENE_1
  6
CONTINUOUS
 10
-3.360122
 20
2.558921
  0
VERTEX
  8
EBENE_1
  6
CONTINUOUS
 10
-3.306252
 20
2.558921
  0
SEQEND
  8
0
  0
POLYLINE
  8
EBENE_1
  6
CONTINUOUS
 66
     1
 40
0.003000
 41
0.003000
  0
VERTEX
  8
EBENE_1
  6
CONTINUOUS
 10
-3.306252
 20
2.546295
  0
VERTEX
  8
EBENE_1
  6
CONTINUOUS
 10
-3.208610
 20
2.546295
  0
SEQEND
  8
0
  0
POLYLINE
  8
EBENE_1
  6
CONTINUOUS
 66
     1
 40
0.003000
 41
0.003000
  0
VERTEX
  8
EBENE_1
  6
CONTINUOUS
 10
-3.405579
 20
2.492421
  0
VERTEX
  8
EBENE_1
  6
CONTINUOUS
 10
-3.360122
 20
2.492421
  0
SEQEND
  8
0
  0
POLYLINE
  8
EBENE_1
  6
CONTINUOUS
 66
     1
 40
0.003000
 41
0.003000
  0
VERTEX
  8
EBENE_1
  6
CONTINUOUS
 10
-3.494803
 20
2.411614
  0
VERTEX
  8
EBENE_1
  6
CONTINUOUS
 10
-3.494803
 20
2.495787
  0
SEQEND
  8
0
  0
POLYLINE
  8
EBENE_1
  6
CONTINUOUS
 66
     1
 40
0.003000
 41
0.003000
  0
VERTEX
  8
EBENE_1
  6
CONTINUOUS
 10
-3.494803
 20
2.495787
  0
VERTEX
  8
EBENE_1
  6
CONTINUOUS
 10
-3.477969
 20
2.512626
  0
SEQEND
  8
0
  0
POLYLINE
  8
EBENE_1
  6
CONTINUOUS
 66
     1
 40
0.003000
 41
0.003000
  0
VERTEX
  8
EBENE_1
  6
CONTINUOUS
 10
-3.477969
 20
2.512626
  0
VERTEX
  8
EBENE_1
  6
CONTINUOUS
 10
-3.425780
 20
2.512626
  0
SEQEND
  8
0
  0
POLYLINE
  8
EBENE_1
  6
CONTINUOUS
 66
     1
 40
0.003000
 41
0.003000
  0
VERTEX
  8
EBENE_1
  6
CONTINUOUS
 10
-3.425780
 20
2.512626
  0
VERTEX
  8
EBENE_1
  6
CONTINUOUS
 10
-3.405579
 20
2.492421
  0
SEQEND
  8
0
  0
POLYLINE
  8
EBENE_1
  6
CONTINUOUS
 66
     1
 40
0.003000
 41
0.003000
  0
VERTEX
  8
EBENE_1
  6
CONTINUOUS
 10
-3.208610
 20
2.483161
  0
VERTEX
  8
EBENE_1
  6
CONTINUOUS
 10
-3.119382
 20
2.483161
  0
SEQEND
  8
0
  0
POLYLINE
  8
EBENE_1
  6
CONTINUOUS
 66
     1
 40
0.003000
 41
0.003000
  0
VERTEX
  8
EBENE_1
  6
CONTINUOUS
 10
-3.119382
 20
2.486531
  0
VERTEX
  8
EBENE_1
  6
CONTINUOUS
 10
-3.060461
 20
2.486531
  0
SEQEND
  8
0
  0
POLYLINE
  8
EBENE_1
  6
CONTINUOUS
 66
     1
 40
0.003000
 41
0.003000
  0
VERTEX
  8
EBENE_1
  6
CONTINUOUS
 10
-3.119382
 20
2.411614
  0
VERTEX
  8
EBENE_1
  6
CONTINUOUS
 10
-3.119382
 20
2.486531
  0
SEQEND
  8
0
  0
POLYLINE
  8
EBENE_1
  6
CONTINUOUS
 66
     1
 40
0.003000
 41
0.003000
  0
VERTEX
  8
EBENE_1
  6
CONTINUOUS
 10
-3.306252
 20
2.276933
  0
VERTEX
  8
EBENE_1
  6
CONTINUOUS
 10
-3.208610
 20
2.276933
  0
SEQEND
  8
0
  0
POLYLINE
  8
EBENE_1
  6
CONTINUOUS
 66
     1
 40
0.003000
 41
0.003000
  0
VERTEX
  8
EBENE_1
  6
CONTINUOUS
 10
-3.208610
 20
2.276933
  0
VERTEX
  8
EBENE_1
  6
CONTINUOUS
 10
-3.208610
 20
2.546295
  0
SEQEND
  8
0
  0
POLYLINE
  8
EBENE_1
  6
CONTINUOUS
 66
     1
 40
0.003000
 41
0.003000
  0
VERTEX
  8
EBENE_1
  6
CONTINUOUS
 10
-3.306252
 20
2.264307
  0
VERTEX
  8
EBENE_1
  6
CONTINUOUS
 10
-3.306252
 20
2.558921
  0
SEQEND
  8
0
  0
POLYLINE
  8
EBENE_1
  6
CONTINUOUS
 66
     1
 40
0.003000
 41
0.003000
  0
VERTEX
  8
EBENE_1
  6
CONTINUOUS
 10
-3.360122
 20
2.264307
  0
VERTEX
  8
EBENE_1
  6
CONTINUOUS
 10
-3.360122
 20
2.558921
  0
SEQEND
  8
0
  0
POLYLINE
  8
EBENE_1
  6
CONTINUOUS
 66
     1
 40
0.003000
 41
0.003000
  0
VERTEX
  8
EBENE_1
  6
CONTINUOUS
 10
-3.405579
 20
2.330807
  0
VERTEX
  8
EBENE_1
  6
CONTINUOUS
 10
-3.360122
 20
2.330807
  0
SEQEND
  8
0
  0
POLYLINE
  8
EBENE_1
  6
CONTINUOUS
 66
     1
 40
0.003000
 41
0.003000
  0
VERTEX
  8
EBENE_1
  6
CONTINUOUS
 10
-3.494803
 20
2.411614
  0
VERTEX
  8
EBENE_1
  6
CONTINUOUS
 10
-3.494803
 20
2.327441
  0
SEQEND
  8
0
  0
POLYLINE
  8
EBENE_1
  6
CONTINUOUS
 66
     1
 40
0.003000
 41
0.003000
  0
VERTEX
  8
EBENE_1
  6
CONTINUOUS
 10
-3.494803
 20
2.327441
  0
VERTEX
  8
EBENE_1
  6
CONTINUOUS
 10
-3.477969
 20
2.310602
  0
SEQEND
  8
0
  0
POLYLINE
  8
EBENE_1
  6
CONTINUOUS
 66
     1
 40
0.003000
 41
0.003000
  0
VERTEX
  8
EBENE_1
  6
CONTINUOUS
 10
-3.477969
 20
2.310602
  0
VERTEX
  8
EBENE_1
  6
CONTINUOUS
 10
-3.425780
 20
2.310602
  0
SEQEND
  8
0
  0
POLYLINE
  8
EBENE_1
  6
CONTINUOUS
 66
     1
 40
0.003000
 41
0.003000
  0
VERTEX
  8
EBENE_1
  6
CONTINUOUS
 10
-3.425780
 20
2.310602
  0
VERTEX
  8
EBENE_1
  6
CONTINUOUS
 10
-3.405579
 20
2.330807
  0
SEQEND
  8
0
  0
POLYLINE
  8
EBENE_1
  6
CONTINUOUS
 66
     1
 40
0.003000
 41
0.003000
  0
VERTEX
  8
EBENE_1
  6
CONTINUOUS
 10
-3.208610
 20
2.340067
  0
VERTEX
  8
EBENE_1
  6
CONTINUOUS
 10
-3.119382
 20
2.340067
  0
SEQEND
  8
0
  0
POLYLINE
  8
EBENE_1
  6
CONTINUOUS
 66
     1
 40
0.003000
 41
0.003000
  0
VERTEX
  8
EBENE_1
  6
CONTINUOUS
 10
-3.060461
 20
2.336697
  0
VERTEX
  8
EBENE_1
  6
CONTINUOUS
 10
-3.060461
 20
2.486531
  0
SEQEND
  8
0
  0
POLYLINE
  8
EBENE_1
  6
CONTINUOUS
 66
     1
 40
0.003000
 41
0.003000
  0
VERTEX
  8
EBENE_1
  6
CONTINUOUS
 10
-3.119382
 20
2.336697
  0
VERTEX
  8
EBENE_1
  6
CONTINUOUS
 10
-3.060461
 20
2.336697
  0
SEQEND
  8
0
  0
POLYLINE
  8
EBENE_1
  6
CONTINUOUS
 66
     1
 40
0.003000
 41
0.003000
  0
VERTEX
  8
EBENE_1
  6
CONTINUOUS
 10
-3.119382
 20
2.411614
  0
VERTEX
  8
EBENE_1
  6
CONTINUOUS
 10
-3.119382
 20
2.336697
  0
SEQEND
  8
0
  0
POLYLINE
  8
EBENE_1
  6
CONTINUOUS
 66
     1
 40
0.003000
 41
0.003000
  0
VERTEX
  8
EBENE_1
  6
CONTINUOUS
 10
-3.360122
 20
2.264307
  0
VERTEX
  8
EBENE_1
  6
CONTINUOUS
 10
-3.306252
 20
2.264307
  0
SEQEND
  8
0
  0
POLYLINE
  8
EBENE_1
  6
CONTINUOUS
 66
     1
 40
0.003000
 41
0.003000
  0
VERTEX
  8
EBENE_1
  6
CONTINUOUS
 10
-3.477969
 20
2.310602
  0
VERTEX
  8
EBENE_1
  6
CONTINUOUS
 10
-3.477969
 20
2.512626
  0
SEQEND
  8
0
  0
POLYLINE
  8
EBENE_1
  6
CONTINUOUS
 66
     1
 40
0.003000
 41
0.003000
  0
VERTEX
  8
EBENE_1
  6
CONTINUOUS
 10
-3.425780
 20
2.512626
  0
VERTEX
  8
EBENE_1
  6
CONTINUOUS
 10
-3.425780
 20
2.310602
  0
SEQEND
  8
0
  0
POLYLINE
  8
EBENE_1
  6
CONTINUOUS
 66
     1
 40
0.003000
 41
0.003000
  0
VERTEX
  8
EBENE_1
  6
CONTINUOUS
 10
-3.405579
 20
2.330807
  0
VERTEX
  8
EBENE_1
  6
CONTINUOUS
 10
-3.405579
 20
2.492421
  0
SEQEND
  8
0
  0
POLYLINE
  8
EBENE_1
  6
CONTINUOUS
 66
     1
 40
0.003000
 41
0.003000
  0
VERTEX
  8
EBENE_1
  6
CONTINUOUS
 10
-3.306252
 20
2.411614
  0
VERTEX
  8
EBENE_1
  6
CONTINUOUS
 10
-3.208610
 20
2.411614
  0
SEQEND
  8
0
  0
POLYLINE
  8
EBENE_1
 62
     3
  6
DASHDOT
 66
     1
 40
0.003000
 41
0.003000
  0
VERTEX
  8
EBENE_1
 62
     3
  6
DASHDOT
 10
-3.494803
 20
2.411614
  0
VERTEX
  8
EBENE_1
 62
     3
  6
DASHDOT
 10
-3.060461
 20
2.411614
  0
SEQEND
  8
0
  0
POLYLINE
  8
EBENE_1
 62
     3
  6
DASHDOT
 66
     1
 40
0.003000
 41
0.003000
  0
VERTEX
  8
EBENE_1
 62
     3
  6
DASHDOT
 10
-2.014114
 20
2.411614
  0
VERTEX
  8
EBENE_1
 62
     3
  6
DASHDOT
 10
-1.626909
 20
2.411614
  0
SEQEND
  8
0
  0
POLYLINE
  8
EBENE_1
 62
     3
  6
DASHDOT
 66
     1
 40
0.003000
 41
0.003000
  0
VERTEX
  8
EBENE_1
 62
     3
  6
DASHDOT
 10
-3.494803
 20
0.938551
  0
VERTEX
  8
EBENE_1
 62
     3
  6
DASHDOT
 10
-3.004906
 20
0.938551
  0
SEQEND
  8
0
  0
POLYLINE
  8
EBENE_1
 62
     3
  6
DASHDOT
 66
     1
 40
0.003000
 41
0.003000
  0
VERTEX
  8
EBENE_1
 62
     3
  6
DASHDOT
 10
-2.014114
 20
0.938551
  0
VERTEX
  8
EBENE_1
 62
     3
  6
DASHDOT
 10
-1.525902
 20
0.938551
  0
SEQEND
  8
0
  0
POLYLINE
  8
EBENE_1
 62
     3
  6
DASHDOT
 66
     1
 40
0.003000
 41
0.003000
  0
VERTEX
  8
EBENE_1
 62
     3
  6
DASHDOT
 10
-3.494803
 20
-0.618685
  0
VERTEX
  8
EBENE_1
 62
     3
  6
DASHDOT
 10
-2.944299
 20
-0.618685
  0
SEQEND
  8
0
  0
POLYLINE
  8
EBENE_1
 62
     3
  6
DASHDOT
 66
     1
 40
0.003000
 41
0.003000
  0
VERTEX
  8
EBENE_1
 62
     3
  6
DASHDOT
 10
-2.014114
 20
-0.618685
  0
VERTEX
  8
EBENE_1
 62
     3
  6
DASHDOT
 10
-1.424890
 20
-0.618685
  0
SEQEND
  8
0
  0
POLYLINE
  8
EBENE_1
 62
     3
  6
DASHDOT
 66
     1
 40
0.003000
 41
0.003000
  0
VERTEX
  8
EBENE_1
 62
     3
  6
DASHDOT
 10
1.129189
 20
2.411614
  0
VERTEX
  8
EBENE_1
 62
     3
  6
DASHDOT
 10
1.713366
 20
2.411614
  0
SEQEND
  8
0
  0
POLYLINE
  8
EBENE_1
 62
     3
  6
DASHDOT
 66
     1
 40
0.003000
 41
0.003000
  0
VERTEX
  8
EBENE_1
 62
     3
  6
DASHDOT
 10
2.609878
 20
2.411614
  0
VERTEX
  8
EBENE_1
 62
     3
  6
DASHDOT
 10
3.249610
 20
2.411614
  0
SEQEND
  8
0
  0
POLYLINE
  8
EBENE_1
 62
     3
  6
DASHDOT
 66
     1
 40
0.003000
 41
0.003000
  0
VERTEX
  8
EBENE_1
 62
     3
  6
DASHDOT
 10
1.129189
 20
0.938551
  0
VERTEX
  8
EBENE_1
 62
     3
  6
DASHDOT
 10
1.800906
 20
0.938551
  0
SEQEND
  8
0
  0
POLYLINE
  8
EBENE_1
 62
     3
  6
DASHDOT
 66
     1
 40
0.003000
 41
0.003000
  0
VERTEX
  8
EBENE_1
 62
     3
  6
DASHDOT
 10
2.609878
 20
0.938551
  0
VERTEX
  8
EBENE_1
 62
     3
  6
DASHDOT
 10
3.367453
 20
0.938551
  0
SEQEND
  8
0
  0
POLYLINE
  8
EBENE_1
 62
     3
  6
DASHDOT
 66
     1
 40
0.003000
 41
0.003000
  0
VERTEX
  8
EBENE_1
 62
     3
  6
DASHDOT
 10
1.129189
 20
-0.618685
  0
VERTEX
  8
EBENE_1
 62
     3
  6
DASHDOT
 10
1.915386
 20
-0.618685
  0
SEQEND
  8
0
  0
POLYLINE
  8
EBENE_1
 62
     3
  6
DASHDOT
 66
     1
 40
0.003000
 41
0.003000
  0
VERTEX
  8
EBENE_1
 62
     3
  6
DASHDOT
 10
2.609878
 20
-0.618685
  0
VERTEX
  8
EBENE_1
 62
     3
  6
DASHDOT
 10
3.619980
 20
-0.618685
  0
SEQEND
  8
0
  0
POLYLINE
  8
EBENE_1
 62
     3
  6
DASHDOT
 66
     1
 40
0.003000
 41
0.003000
  0
VERTEX
  8
EBENE_1
 62
     3
  6
DASHDOT
 10
-3.494803
 20
-2.078913
  0
VERTEX
  8
EBENE_1
 62
     3
  6
DASHDOT
 10
-3.053728
 20
-2.078913
  0
SEQEND
  8
0
  0
POLYLINE
  8
EBENE_1
 62
     3
  6
DASHDOT
 66
     1
 40
0.003000
 41
0.003000
  0
VERTEX
  8
EBENE_1
 62
     3
  6
DASHDOT
 10
-2.014114
 20
-2.078913
  0
VERTEX
  8
EBENE_1
 62
     3
  6
DASHDOT
 10
-1.593240
 20
-2.078913
  0
SEQEND
  8
0
  0
POLYLINE
  8
EBENE_1
 62
     3
  6
DASHDOT
 66
     1
 40
0.003000
 41
0.003000
  0
VERTEX
  8
EBENE_1
 62
     3
  6
DASHDOT
 10
1.129189
 20
-2.078913
  0
VERTEX
  8
EBENE_1
 62
     3
  6
DASHDOT
 10
1.636764
 20
-2.078913
  0
SEQEND
  8
0
  0
POLYLINE
  8
EBENE_1
 62
     3
  6
DASHDOT
 66
     1
 40
0.003000
 41
0.003000
  0
VERTEX
  8
EBENE_1
 62
     3
  6
DASHDOT
 10
2.609878
 20
-2.078913
  0
VERTEX
  8
EBENE_1
 62
     3
  6
DASHDOT
 10
3.131764
 20
-2.078913
  0
SEQEND
  8
0
  0
POLYLINE
  8
EBENE_1
  6
CONTINUOUS
 66
     1
 40
0.003000
 41
0.003000
  0
VERTEX
  8
EBENE_1
  6
CONTINUOUS
 10
-1.626909
 20
2.453701
  0
VERTEX
  8
EBENE_1
  6
CONTINUOUS
 10
-1.643744
 20
2.470535
  0
SEQEND
  8
0
  0
POLYLINE
  8
EBENE_1
  6
CONTINUOUS
 66
     1
 40
0.003000
 41
0.003000
  0
VERTEX
  8
EBENE_1
  6
CONTINUOUS
 10
-1.685835
 20
2.470535
  0
VERTEX
  8
EBENE_1
  6
CONTINUOUS
 10
-1.643744
 20
2.470535
  0
SEQEND
  8
0
  0
POLYLINE
  8
EBENE_1
  6
CONTINUOUS
 66
     1
 40
0.003000
 41
0.003000
  0
VERTEX
  8
EBENE_1
  6
CONTINUOUS
 10
-1.702669
 20
2.504209
  0
VERTEX
  8
EBENE_1
  6
CONTINUOUS
 10
-1.702669
 20
2.512626
  0
SEQEND
  8
0
  0
POLYLINE
  8
EBENE_1
  6
CONTINUOUS
 66
     1
 40
0.003000
 41
0.003000
  0
VERTEX
  8
EBENE_1
  6
CONTINUOUS
 10
-1.702669
 20
2.512626
  0
VERTEX
  8
EBENE_1
  6
CONTINUOUS
 10
-1.719504
 20
2.529461
  0
SEQEND
  8
0
  0
POLYLINE
  8
EBENE_1
  6
CONTINUOUS
 66
     1
 40
0.003000
 41
0.003000
  0
VERTEX
  8
EBENE_1
  6
CONTINUOUS
 10
-1.801154
 20
2.529461
  0
VERTEX
  8
EBENE_1
  6
CONTINUOUS
 10
-1.719504
 20
2.529461
  0
SEQEND
  8
0
  0
POLYLINE
  8
EBENE_1
  6
CONTINUOUS
 66
     1
 40
0.003000
 41
0.003000
  0
VERTEX
  8
EBENE_1
  6
CONTINUOUS
 10
-1.702669
 20
2.310602
  0
VERTEX
  8
EBENE_1
  6
CONTINUOUS
 10
-1.719504
 20
2.293768
  0
SEQEND
  8
0
  0
POLYLINE
  8
EBENE_1
  6
CONTINUOUS
 66
     1
 40
0.003000
 41
0.003000
  0
VERTEX
  8
EBENE_1
  6
CONTINUOUS
 10
-1.801154
 20
2.293768
  0
VERTEX
  8
EBENE_1
  6
CONTINUOUS
 10
-1.719504
 20
2.293768
  0
SEQEND
  8
0
  0
POLYLINE
  8
EBENE_1
  6
CONTINUOUS
 66
     1
 40
0.003000
 41
0.003000
  0
VERTEX
  8
EBENE_1
  6
CONTINUOUS
 10
-1.862602
 20
2.251681
  0
VERTEX
  8
EBENE_1
  6
CONTINUOUS
 10
-1.862602
 20
2.571547
  0
SEQEND
  8
0
  0
POLYLINE
  8
EBENE_1
  6
CONTINUOUS
 66
     1
 40
0.003000
 41
0.003000
  0
VERTEX
  8
EBENE_1
  6
CONTINUOUS
 10
-1.862602
 20
2.251681
  0
VERTEX
  8
EBENE_1
  6
CONTINUOUS
 10
-1.913106
 20
2.251681
  0
SEQEND
  8
0
  0
POLYLINE
  8
EBENE_1
  6
CONTINUOUS
 66
     1
 40
0.003000
 41
0.003000
  0
VERTEX
  8
EBENE_1
  6
CONTINUOUS
 10
-1.913106
 20
2.251681
  0
VERTEX
  8
EBENE_1
  6
CONTINUOUS
 10
-1.913106
 20
2.571547
  0
SEQEND
  8
0
  0
POLYLINE
  8
EBENE_1
  6
CONTINUOUS
 66
     1
 40
0.003000
 41
0.003000
  0
VERTEX
  8
EBENE_1
  6
CONTINUOUS
 10
-2.014114
 20
2.261783
  0
VERTEX
  8
EBENE_1
  6
CONTINUOUS
 10
-2.014114
 20
2.561445
  0
SEQEND
  8
0
  0
POLYLINE
  8
EBENE_1
  6
CONTINUOUS
 66
     1
 40
0.003000
 41
0.003000
  0
VERTEX
  8
EBENE_1
  6
CONTINUOUS
 10
-1.702669
 20
2.319020
  0
VERTEX
  8
EBENE_1
  6
CONTINUOUS
 10
-1.702669
 20
2.310602
  0
SEQEND
  8
0
  0
POLYLINE
  8
EBENE_1
  6
CONTINUOUS
 66
     1
 40
0.003000
 41
0.003000
  0
VERTEX
  8
EBENE_1
  6
CONTINUOUS
 10
-1.702669
 20
2.319020
  0
VERTEX
  8
EBENE_1
  6
CONTINUOUS
 10
-1.685835
 20
2.319020
  0
SEQEND
  8
0
  0
POLYLINE
  8
EBENE_1
  6
CONTINUOUS
 66
     1
 40
0.003000
 41
0.003000
  0
VERTEX
  8
EBENE_1
  6
CONTINUOUS
 10
-1.685835
 20
2.319020
  0
VERTEX
  8
EBENE_1
  6
CONTINUOUS
 10
-1.685835
 20
2.504209
  0
SEQEND
  8
0
  0
POLYLINE
  8
EBENE_1
  6
CONTINUOUS
 66
     1
 40
0.003000
 41
0.003000
  0
VERTEX
  8
EBENE_1
  6
CONTINUOUS
 10
-1.685835
 20
2.352693
  0
VERTEX
  8
EBENE_1
  6
CONTINUOUS
 10
-1.643744
 20
2.352693
  0
SEQEND
  8
0
  0
POLYLINE
  8
EBENE_1
  6
CONTINUOUS
 66
     1
 40
0.003000
 41
0.003000
  0
VERTEX
  8
EBENE_1
  6
CONTINUOUS
 10
-1.626909
 20
2.369528
  0
VERTEX
  8
EBENE_1
  6
CONTINUOUS
 10
-1.643744
 20
2.352693
  0
SEQEND
  8
0
  0
POLYLINE
  8
EBENE_1
  6
CONTINUOUS
 66
     1
 40
0.003000
 41
0.003000
  0
VERTEX
  8
EBENE_1
  6
CONTINUOUS
 10
-1.626909
 20
2.369528
  0
VERTEX
  8
EBENE_1
  6
CONTINUOUS
 10
-1.626909
 20
2.453701
  0
SEQEND
  8
0
  0
POLYLINE
  8
EBENE_1
  6
CONTINUOUS
 66
     1
 40
0.003000
 41
0.003000
  0
VERTEX
  8
EBENE_1
  6
CONTINUOUS
 10
-1.913106
 20
2.561445
  0
VERTEX
  8
EBENE_1
  6
CONTINUOUS
 10
-2.014114
 20
2.561445
  0
SEQEND
  8
0
  0
POLYLINE
  8
EBENE_1
  6
CONTINUOUS
 66
     1
 40
0.003000
 41
0.003000
  0
VERTEX
  8
EBENE_1
  6
CONTINUOUS
 10
-1.862602
 20
2.510098
  0
VERTEX
  8
EBENE_1
  6
CONTINUOUS
 10
-1.820512
 20
2.510098
  0
SEQEND
  8
0
  0
POLYLINE
  8
EBENE_1
  6
CONTINUOUS
 66
     1
 40
0.003000
 41
0.003000
  0
VERTEX
  8
EBENE_1
  6
CONTINUOUS
 10
-1.820512
 20
2.510098
  0
VERTEX
  8
EBENE_1
  6
CONTINUOUS
 10
-1.801154
 20
2.529461
  0
SEQEND
  8
0
  0
POLYLINE
  8
EBENE_1
  6
CONTINUOUS
 66
     1
 40
0.003000
 41
0.003000
  0
VERTEX
  8
EBENE_1
  6
CONTINUOUS
 10
-1.913106
 20
2.261783
  0
VERTEX
  8
EBENE_1
  6
CONTINUOUS
 10
-2.014114
 20
2.261783
  0
SEQEND
  8
0
  0
POLYLINE
  8
EBENE_1
  6
CONTINUOUS
 66
     1
 40
0.003000
 41
0.003000
  0
VERTEX
  8
EBENE_1
  6
CONTINUOUS
 10
-1.862602
 20
2.313130
  0
VERTEX
  8
EBENE_1
  6
CONTINUOUS
 10
-1.820512
 20
2.313130
  0
SEQEND
  8
0
  0
POLYLINE
  8
EBENE_1
  6
CONTINUOUS
 66
     1
 40
0.003000
 41
0.003000
  0
VERTEX
  8
EBENE_1
  6
CONTINUOUS
 10
-1.820512
 20
2.313130
  0
VERTEX
  8
EBENE_1
  6
CONTINUOUS
 10
-1.801154
 20
2.293768
  0
SEQEND
  8
0
  0
POLYLINE
  8
EBENE_1
  6
CONTINUOUS
 66
     1
 40
0.003000
 41
0.003000
  0
VERTEX
  8
EBENE_1
  6
CONTINUOUS
 10
-2.014114
 20
2.411614
  0
VERTEX
  8
EBENE_1
  6
CONTINUOUS
 10
-1.913106
 20
2.411614
  0
SEQEND
  8
0
  0
POLYLINE
  8
EBENE_1
  6
CONTINUOUS
 66
     1
 40
0.003000
 41
0.003000
  0
VERTEX
  8
EBENE_1
  6
CONTINUOUS
 10
-1.702669
 20
2.504209
  0
VERTEX
  8
EBENE_1
  6
CONTINUOUS
 10
-1.685835
 20
2.504209
  0
SEQEND
  8
0
  0
POLYLINE
  8
EBENE_1
  6
CONTINUOUS
 66
     1
 40
0.003000
 41
0.003000
  0
VERTEX
  8
EBENE_1
  6
CONTINUOUS
 10
-1.862602
 20
2.571547
  0
VERTEX
  8
EBENE_1
  6
CONTINUOUS
 10
-1.913106
 20
2.571547
  0
SEQEND
  8
0
  0
POLYLINE
  8
EBENE_1
  6
CONTINUOUS
 66
     1
 40
0.003000
 41
0.003000
  0
VERTEX
  8
EBENE_1
  6
CONTINUOUS
 10
-1.820512
 20
2.313130
  0
VERTEX
  8
EBENE_1
  6
CONTINUOUS
 10
-1.820512
 20
2.510098
  0
SEQEND
  8
0
  0
POLYLINE
  8
EBENE_1
  6
CONTINUOUS
 66
     1
 40
0.003000
 41
0.003000
  0
VERTEX
  8
EBENE_1
  6
CONTINUOUS
 10
-1.801154
 20
2.529461
  0
VERTEX
  8
EBENE_1
  6
CONTINUOUS
 10
-1.801154
 20
2.293768
  0
SEQEND
  8
0
  0
POLYLINE
  8
EBENE_1
  6
CONTINUOUS
 66
     1
 40
0.003000
 41
0.003000
  0
VERTEX
  8
EBENE_1
  6
CONTINUOUS
 10
-1.719504
 20
2.293768
  0
VERTEX
  8
EBENE_1
  6
CONTINUOUS
 10
-1.719504
 20
2.529461
  0
SEQEND
  8
0
  0
POLYLINE
  8
EBENE_1
  6
CONTINUOUS
 66
     1
 40
0.003000
 41
0.003000
  0
VERTEX
  8
EBENE_1
  6
CONTINUOUS
 10
-1.702669
 20
2.319020
  0
VERTEX
  8
EBENE_1
  6
CONTINUOUS
 10
-1.702669
 20
2.504209
  0
SEQEND
  8
0
  0
POLYLINE
  8
EBENE_1
  6
CONTINUOUS
 66
     1
 40
0.003000
 41
0.003000
  0
VERTEX
  8
EBENE_1
  6
CONTINUOUS
 10
-1.643744
 20
2.352693
  0
VERTEX
  8
EBENE_1
  6
CONTINUOUS
 10
-1.643744
 20
2.470535
  0
SEQEND
  8
0
  0
TEXT
  8
EBENE_1
 10
-3.586134
 20
3.014039
 40
0.074275
  1
Nippel QC/M06-N
 41
1.000000
  7
SN0
 71
     0
 72
     5
 11
-2.694867
 21
3.014039
  0
TEXT
  8
EBENE_1
 10
-1.934201
 20
3.014039
 40
0.074275
  1
Kuppler QC/F06-N
 41
1.000000
  7
SN0
 71
     0
 72
     5
 11
-0.961910
 21
3.014039
  0
TEXT
  8
EBENE_1
 10
-1.934201
 20
1.744780
 40
0.074275
  1
Kuppler QC/F08-N
 41
1.000000
  7
SN0
 71
     0
 72
     5
 11
-0.961910
 21
1.744780
  0
TEXT
  8
EBENE_1
 10
-3.586134
 20
1.744780
 40
0.074275
  1
Nippel QC/M08-N
 41
1.000000
  7
SN0
 71
     0
 72
     5
 11
-2.694867
 21
1.744780
  0
TEXT
  8
EBENE_1
 10
-3.586134
 20
0.209713
 40
0.074275
  1
Nippel QC/M10-N
 41
1.000000
  7
SN0
 71
     0
 72
     5
 11
-2.694867
 21
0.209713
  0
TEXT
  8
EBENE_1
 10
-1.934201
 20
0.209713
 40
0.074275
  1
Kuppler QC/F10-N
 41
1.000000
  7
SN0
 71
     0
 72
     5
 11
-0.961910
 21
0.209713
  0
TEXT
  8
EBENE_1
 10
1.037858
 20
3.014039
 40
0.074275
  1
Nippel QC/M12-N
 41
1.000000
  7
SN0
 71
     0
 72
     5
 11
1.929125
 21
3.014039
  0
TEXT
  8
EBENE_1
 10
2.689791
 20
3.014039
 40
0.074275
  1
Kuppler QC/F12-N
 41
1.000000
  7
SN0
 71
     0
 72
     5
 11
3.662082
 21
3.014039
  0
TEXT
  8
EBENE_1
 10
1.037858
 20
1.744780
 40
0.074275
  1
Nippel QC/M14-N
 41
1.000000
  7
SN0
 71
     0
 72
     5
 11
1.929125
 21
1.744780
  0
TEXT
  8
EBENE_1
 10
2.689791
 20
1.744780
 40
0.074275
  1
Kuppler QC/F14-N
 41
1.000000
  7
SN0
 71
     0
 72
     5
 11
3.662082
 21
1.744780
  0
TEXT
  8
EBENE_1
 10
1.037858
 20
0.209713
 40
0.074275
  1
Nippel QC/M16-N
 41
1.000000
  7
SN0
 71
     0
 72
     5
 11
1.929125
 21
0.209713
  0
TEXT
  8
EBENE_1
 10
2.689791
 20
0.209713
 40
0.074275
  1
Kuppler QC/F16-N
 41
1.000000
  7
SN0
 71
     0
 72
     5
 11
3.662082
 21
0.209713
  0
TEXT
  8
EBENE_1
 10
-3.586134
 20
-1.476488
 40
0.074275
  1
Nippel QC/M06-H
 41
1.000000
  7
SN0
 71
     0
 72
     5
 11
-2.694867
 21
-1.476488
  0
TEXT
  8
EBENE_1
 10
-1.934201
 20
-1.476488
 40
0.074275
  1
Kuppler QC/F06-H
 41
1.000000
  7
SN0
 71
     0
 72
     5
 11
-0.961910
 21
-1.476488
  0
TEXT
  8
EBENE_1
 10
2.689791
 20
-1.476488
 40
0.074275
  1
Kuppler QC/F08-H
 41
1.000000
  7
SN0
 71
     0
 72
     5
 11
3.662082
 21
-1.476488
  0
TEXT
  8
EBENE_1
 10
1.037858
 20
-1.476488
 40
0.074275
  1
Nippel QC/M08-H
 41
1.000000
  7
SN0
 71
     0
 72
     5
 11
1.929125
 21
-1.476488
  0
POLYLINE
  8
EBENE_1
  6
CONTINUOUS
 66
     1
 40
0.003000
 41
0.003000
  0
VERTEX
  8
EBENE_1
  6
CONTINUOUS
 10
-3.494803
 20
1.012626
  0
VERTEX
  8
EBENE_1
  6
CONTINUOUS
 10
-3.494803
 20
1.043768
  0
SEQEND
  8
0
  0
POLYLINE
  8
EBENE_1
  6
CONTINUOUS
 66
     1
 40
0.003000
 41
0.003000
  0
VERTEX
  8
EBENE_1
  6
CONTINUOUS
 10
-3.482177
 20
1.056394
  0
VERTEX
  8
EBENE_1
  6
CONTINUOUS
 10
-3.400528
 20
1.056394
  0
SEQEND
  8
0
  0
POLYLINE
  8
EBENE_1
  6
CONTINUOUS
 66
     1
 40
0.003000
 41
0.003000
  0
VERTEX
  8
EBENE_1
  6
CONTINUOUS
 10
-3.494803
 20
0.833331
  0
VERTEX
  8
EBENE_1
  6
CONTINUOUS
 10
-3.494803
 20
0.864476
  0
SEQEND
  8
0
  0
POLYLINE
  8
EBENE_1
  6
CONTINUOUS
 66
     1
 40
0.003000
 41
0.003000
  0
VERTEX
  8
EBENE_1
  6
CONTINUOUS
 10
-3.482177
 20
0.820705
  0
VERTEX
  8
EBENE_1
  6
CONTINUOUS
 10
-3.400528
 20
0.820705
  0
SEQEND
  8
0
  0
POLYLINE
  8
EBENE_1
  6
CONTINUOUS
 66
     1
 40
0.003000
 41
0.003000
  0
VERTEX
  8
EBENE_1
  6
CONTINUOUS
 10
-3.494803
 20
1.043768
  0
VERTEX
  8
EBENE_1
  6
CONTINUOUS
 10
-3.482177
 20
1.056394
  0
SEQEND
  8
0
  0
POLYLINE
  8
EBENE_1
  6
CONTINUOUS
 66
     1
 40
0.003000
 41
0.003000
  0
VERTEX
  8
EBENE_1
  6
CONTINUOUS
 10
-3.380327
 20
1.036193
  0
VERTEX
  8
EBENE_1
  6
CONTINUOUS
 10
-3.326453
 20
1.036193
  0
SEQEND
  8
0
  0
POLYLINE
  8
EBENE_1
  6
CONTINUOUS
 66
     1
 40
0.003000
 41
0.003000
  0
VERTEX
  8
EBENE_1
  6
CONTINUOUS
 10
-3.380327
 20
1.036193
  0
VERTEX
  8
EBENE_1
  6
CONTINUOUS
 10
-3.400528
 20
1.056394
  0
SEQEND
  8
0
  0
POLYLINE
  8
EBENE_1
  6
CONTINUOUS
 66
     1
 40
0.003000
 41
0.003000
  0
VERTEX
  8
EBENE_1
  6
CONTINUOUS
 10
-3.494803
 20
0.938551
  0
VERTEX
  8
EBENE_1
  6
CONTINUOUS
 10
-3.494803
 20
1.014307
  0
SEQEND
  8
0
  0
POLYLINE
  8
EBENE_1
  6
CONTINUOUS
 66
     1
 40
0.003000
 41
0.003000
  0
VERTEX
  8
EBENE_1
  6
CONTINUOUS
 10
-3.326453
 20
1.109425
  0
VERTEX
  8
EBENE_1
  6
CONTINUOUS
 10
-3.275949
 20
1.109425
  0
SEQEND
  8
0
  0
POLYLINE
  8
EBENE_1
  6
CONTINUOUS
 66
     1
 40
0.003000
 41
0.003000
  0
VERTEX
  8
EBENE_1
  6
CONTINUOUS
 10
-3.275949
 20
1.090067
  0
VERTEX
  8
EBENE_1
  6
CONTINUOUS
 10
-3.174937
 20
1.090067
  0
SEQEND
  8
0
  0
POLYLINE
  8
EBENE_1
  6
CONTINUOUS
 66
     1
 40
0.003000
 41
0.003000
  0
VERTEX
  8
EBENE_1
  6
CONTINUOUS
 10
-3.055409
 20
1.044610
  0
VERTEX
  8
EBENE_1
  6
CONTINUOUS
 10
-3.004906
 20
1.044610
  0
SEQEND
  8
0
  0
POLYLINE
  8
EBENE_1
  6
CONTINUOUS
 66
     1
 40
0.003000
 41
0.003000
  0
VERTEX
  8
EBENE_1
  6
CONTINUOUS
 10
-3.055409
 20
0.938551
  0
VERTEX
  8
EBENE_1
  6
CONTINUOUS
 10
-3.055409
 20
1.044610
  0
SEQEND
  8
0
  0
POLYLINE
  8
EBENE_1
  6
CONTINUOUS
 66
     1
 40
0.003000
 41
0.003000
  0
VERTEX
  8
EBENE_1
  6
CONTINUOUS
 10
-3.174937
 20
1.042929
  0
VERTEX
  8
EBENE_1
  6
CONTINUOUS
 10
-3.055409
 20
1.042929
  0
SEQEND
  8
0
  0
POLYLINE
  8
EBENE_1
  6
CONTINUOUS
 66
     1
 40
0.003000
 41
0.003000
  0
VERTEX
  8
EBENE_1
  6
CONTINUOUS
 10
-3.004906
 20
0.832488
  0
VERTEX
  8
EBENE_1
  6
CONTINUOUS
 10
-3.004906
 20
1.044610
  0
SEQEND
  8
0
  0
POLYLINE
  8
EBENE_1
  6
CONTINUOUS
 66
     1
 40
0.003000
 41
0.003000
  0
VERTEX
  8
EBENE_1
  6
CONTINUOUS
 10
-3.055409
 20
0.832488
  0
VERTEX
  8
EBENE_1
  6
CONTINUOUS
 10
-3.055409
 20
0.938551
  0
SEQEND
  8
0
  0
POLYLINE
  8
EBENE_1
  6
CONTINUOUS
 66
     1
 40
0.003000
 41
0.003000
  0
VERTEX
  8
EBENE_1
  6
CONTINUOUS
 10
-3.174937
 20
0.834173
  0
VERTEX
  8
EBENE_1
  6
CONTINUOUS
 10
-3.055409
 20
0.834173
  0
SEQEND
  8
0
  0
POLYLINE
  8
EBENE_1
  6
CONTINUOUS
 66
     1
 40
0.003000
 41
0.003000
  0
VERTEX
  8
EBENE_1
  6
CONTINUOUS
 10
-3.326453
 20
0.767673
  0
VERTEX
  8
EBENE_1
  6
CONTINUOUS
 10
-3.326453
 20
0.797138
  0
SEQEND
  8
0
  0
POLYLINE
  8
EBENE_1
  6
CONTINUOUS
 66
     1
 40
0.003000
 41
0.003000
  0
VERTEX
  8
EBENE_1
  6
CONTINUOUS
 10
-3.326453
 20
0.797138
  0
VERTEX
  8
EBENE_1
  6
CONTINUOUS
 10
-3.326453
 20
1.109425
  0
SEQEND
  8
0
  0
POLYLINE
  8
EBENE_1
  6
CONTINUOUS
 66
     1
 40
0.003000
 41
0.003000
  0
VERTEX
  8
EBENE_1
  6
CONTINUOUS
 10
-3.494803
 20
0.833331
  0
VERTEX
  8
EBENE_1
  6
CONTINUOUS
 10
-3.482177
 20
0.820705
  0
SEQEND
  8
0
  0
POLYLINE
  8
EBENE_1
  6
CONTINUOUS
 66
     1
 40
0.003000
 41
0.003000
  0
VERTEX
  8
EBENE_1
  6
CONTINUOUS
 10
-3.380327
 20
0.840906
  0
VERTEX
  8
EBENE_1
  6
CONTINUOUS
 10
-3.326453
 20
0.840906
  0
SEQEND
  8
0
  0
POLYLINE
  8
EBENE_1
  6
CONTINUOUS
 66
     1
 40
0.003000
 41
0.003000
  0
VERTEX
  8
EBENE_1
  6
CONTINUOUS
 10
-3.380327
 20
0.840906
  0
VERTEX
  8
EBENE_1
  6
CONTINUOUS
 10
-3.400528
 20
0.820705
  0
SEQEND
  8
0
  0
POLYLINE
  8
EBENE_1
  6
CONTINUOUS
 66
     1
 40
0.003000
 41
0.003000
  0
VERTEX
  8
EBENE_1
  6
CONTINUOUS
 10
-3.494803
 20
0.864476
  0
VERTEX
  8
EBENE_1
  6
CONTINUOUS
 10
-3.494803
 20
0.938551
  0
SEQEND
  8
0
  0
POLYLINE
  8
EBENE_1
  6
CONTINUOUS
 66
     1
 40
0.003000
 41
0.003000
  0
VERTEX
  8
EBENE_1
  6
CONTINUOUS
 10
-3.326453
 20
0.767673
  0
VERTEX
  8
EBENE_1
  6
CONTINUOUS
 10
-3.275949
 20
0.767673
  0
SEQEND
  8
0
  0
POLYLINE
  8
EBENE_1
  6
CONTINUOUS
 66
     1
 40
0.003000
 41
0.003000
  0
VERTEX
  8
EBENE_1
  6
CONTINUOUS
 10
-3.275949
 20
0.787035
  0
VERTEX
  8
EBENE_1
  6
CONTINUOUS
 10
-3.174937
 20
0.787035
  0
SEQEND
  8
0
  0
POLYLINE
  8
EBENE_1
  6
CONTINUOUS
 66
     1
 40
0.003000
 41
0.003000
  0
VERTEX
  8
EBENE_1
  6
CONTINUOUS
 10
-3.174937
 20
0.787035
  0
VERTEX
  8
EBENE_1
  6
CONTINUOUS
 10
-3.174937
 20
1.090067
  0
SEQEND
  8
0
  0
POLYLINE
  8
EBENE_1
  6
CONTINUOUS
 66
     1
 40
0.003000
 41
0.003000
  0
VERTEX
  8
EBENE_1
  6
CONTINUOUS
 10
-3.275949
 20
0.767673
  0
VERTEX
  8
EBENE_1
  6
CONTINUOUS
 10
-3.275949
 20
1.109425
  0
SEQEND
  8
0
  0
POLYLINE
  8
EBENE_1
  6
CONTINUOUS
 66
     1
 40
0.003000
 41
0.003000
  0
VERTEX
  8
EBENE_1
  6
CONTINUOUS
 10
-3.055409
 20
0.832488
  0
VERTEX
  8
EBENE_1
  6
CONTINUOUS
 10
-3.004906
 20
0.832488
  0
SEQEND
  8
0
  0
POLYLINE
  8
EBENE_1
  6
CONTINUOUS
 66
     1
 40
0.003000
 41
0.003000
  0
VERTEX
  8
EBENE_1
  6
CONTINUOUS
 10
-3.275949
 20
0.938551
  0
VERTEX
  8
EBENE_1
  6
CONTINUOUS
 10
-3.174937
 20
0.938551
  0
SEQEND
  8
0
  0
POLYLINE
  8
EBENE_1
  6
CONTINUOUS
 66
     1
 40
0.003000
 41
0.003000
  0
VERTEX
  8
EBENE_1
  6
CONTINUOUS
 10
-3.482177
 20
1.056394
  0
VERTEX
  8
EBENE_1
  6
CONTINUOUS
 10
-3.482177
 20
0.820705
  0
SEQEND
  8
0
  0
POLYLINE
  8
EBENE_1
  6
CONTINUOUS
 66
     1
 40
0.003000
 41
0.003000
  0
VERTEX
  8
EBENE_1
  6
CONTINUOUS
 10
-3.400528
 20
1.056394
  0
VERTEX
  8
EBENE_1
  6
CONTINUOUS
 10
-3.400528
 20
0.820705
  0
SEQEND
  8
0
  0
POLYLINE
  8
EBENE_1
  6
CONTINUOUS
 66
     1
 40
0.003000
 41
0.003000
  0
VERTEX
  8
EBENE_1
  6
CONTINUOUS
 10
-3.380327
 20
1.036193
  0
VERTEX
  8
EBENE_1
  6
CONTINUOUS
 10
-3.380327
 20
0.840906
  0
SEQEND
  8
0
  0
POLYLINE
  8
EBENE_1
  6
CONTINUOUS
 66
     1
 40
0.003000
 41
0.003000
  0
VERTEX
  8
EBENE_1
  6
CONTINUOUS
 10
-1.525902
 20
0.833331
  0
VERTEX
  8
EBENE_1
  6
CONTINUOUS
 10
-1.525902
 20
1.043768
  0
SEQEND
  8
0
  0
POLYLINE
  8
EBENE_1
  6
CONTINUOUS
 66
     1
 40
0.003000
 41
0.003000
  0
VERTEX
  8
EBENE_1
  6
CONTINUOUS
 10
-1.690882
 20
1.090067
  0
VERTEX
  8
EBENE_1
  6
CONTINUOUS
 10
-1.677417
 20
1.076598
  0
SEQEND
  8
0
  0
POLYLINE
  8
EBENE_1
  6
CONTINUOUS
 66
     1
 40
0.003000
 41
0.003000
  0
VERTEX
  8
EBENE_1
  6
CONTINUOUS
 10
-1.788528
 20
1.090067
  0
VERTEX
  8
EBENE_1
  6
CONTINUOUS
 10
-1.690882
 20
1.090067
  0
SEQEND
  8
0
  0
POLYLINE
  8
EBENE_1
  6
CONTINUOUS
 66
     1
 40
0.003000
 41
0.003000
  0
VERTEX
  8
EBENE_1
  6
CONTINUOUS
 10
-1.862602
 20
0.736531
  0
VERTEX
  8
EBENE_1
  6
CONTINUOUS
 10
-1.862602
 20
1.140571
  0
SEQEND
  8
0
  0
POLYLINE
  8
EBENE_1
  6
CONTINUOUS
 66
     1
 40
0.003000
 41
0.003000
  0
VERTEX
  8
EBENE_1
  6
CONTINUOUS
 10
-1.916472
 20
1.140571
  0
VERTEX
  8
EBENE_1
  6
CONTINUOUS
 10
-1.862602
 20
1.140571
  0
SEQEND
  8
0
  0
POLYLINE
  8
EBENE_1
  6
CONTINUOUS
 66
     1
 40
0.003000
 41
0.003000
  0
VERTEX
  8
EBENE_1
  6
CONTINUOUS
 10
-2.014114
 20
0.787035
  0
VERTEX
  8
EBENE_1
  6
CONTINUOUS
 10
-2.014114
 20
1.090067
  0
SEQEND
  8
0
  0
POLYLINE
  8
EBENE_1
  6
CONTINUOUS
 66
     1
 40
0.003000
 41
0.003000
  0
VERTEX
  8
EBENE_1
  6
CONTINUOUS
 10
-1.690882
 20
0.787035
  0
VERTEX
  8
EBENE_1
  6
CONTINUOUS
 10
-1.677417
 20
0.800504
  0
SEQEND
  8
0
  0
POLYLINE
  8
EBENE_1
  6
CONTINUOUS
 66
     1
 40
0.003000
 41
0.003000
  0
VERTEX
  8
EBENE_1
  6
CONTINUOUS
 10
-1.788528
 20
0.787035
  0
VERTEX
  8
EBENE_1
  6
CONTINUOUS
 10
-1.690882
 20
0.787035
  0
SEQEND
  8
0
  0
POLYLINE
  8
EBENE_1
  6
CONTINUOUS
 66
     1
 40
0.003000
 41
0.003000
  0
VERTEX
  8
EBENE_1
  6
CONTINUOUS
 10
-1.677417
 20
0.816496
  0
VERTEX
  8
EBENE_1
  6
CONTINUOUS
 10
-1.542736
 20
0.816496
  0
SEQEND
  8
0
  0
POLYLINE
  8
EBENE_1
  6
CONTINUOUS
 66
     1
 40
0.003000
 41
0.003000
  0
VERTEX
  8
EBENE_1
  6
CONTINUOUS
 10
-1.542736
 20
0.816496
  0
VERTEX
  8
EBENE_1
  6
CONTINUOUS
 10
-1.525902
 20
0.833331
  0
SEQEND
  8
0
  0
POLYLINE
  8
EBENE_1
  6
CONTINUOUS
 66
     1
 40
0.003000
 41
0.003000
  0
VERTEX
  8
EBENE_1
  6
CONTINUOUS
 10
-1.677417
 20
0.816496
  0
VERTEX
  8
EBENE_1
  6
CONTINUOUS
 10
-1.677417
 20
0.800504
  0
SEQEND
  8
0
  0
POLYLINE
  8
EBENE_1
  6
CONTINUOUS
 66
     1
 40
0.003000
 41
0.003000
  0
VERTEX
  8
EBENE_1
  6
CONTINUOUS
 10
-1.916472
 20
0.736531
  0
VERTEX
  8
EBENE_1
  6
CONTINUOUS
 10
-1.916472
 20
1.140571
  0
SEQEND
  8
0
  0
POLYLINE
  8
EBENE_1
  6
CONTINUOUS
 66
     1
 40
0.003000
 41
0.003000
  0
VERTEX
  8
EBENE_1
  6
CONTINUOUS
 10
-1.862602
 20
1.069862
  0
VERTEX
  8
EBENE_1
  6
CONTINUOUS
 10
-1.808728
 20
1.069862
  0
SEQEND
  8
0
  0
POLYLINE
  8
EBENE_1
  6
CONTINUOUS
 66
     1
 40
0.003000
 41
0.003000
  0
VERTEX
  8
EBENE_1
  6
CONTINUOUS
 10
-1.808728
 20
1.069862
  0
VERTEX
  8
EBENE_1
  6
CONTINUOUS
 10
-1.788528
 20
1.090067
  0
SEQEND
  8
0
  0
POLYLINE
  8
EBENE_1
  6
CONTINUOUS
 66
     1
 40
0.003000
 41
0.003000
  0
VERTEX
  8
EBENE_1
  6
CONTINUOUS
 10
-1.677417
 20
1.060602
  0
VERTEX
  8
EBENE_1
  6
CONTINUOUS
 10
-1.677417
 20
1.076598
  0
SEQEND
  8
0
  0
POLYLINE
  8
EBENE_1
  6
CONTINUOUS
 66
     1
 40
0.003000
 41
0.003000
  0
VERTEX
  8
EBENE_1
  6
CONTINUOUS
 10
-2.014114
 20
1.090067
  0
VERTEX
  8
EBENE_1
  6
CONTINUOUS
 10
-1.916472
 20
1.090067
  0
SEQEND
  8
0
  0
POLYLINE
  8
EBENE_1
  6
CONTINUOUS
 66
     1
 40
0.003000
 41
0.003000
  0
VERTEX
  8
EBENE_1
  6
CONTINUOUS
 10
-1.916472
 20
0.736531
  0
VERTEX
  8
EBENE_1
  6
CONTINUOUS
 10
-1.862602
 20
0.736531
  0
SEQEND
  8
0
  0
POLYLINE
  8
EBENE_1
  6
CONTINUOUS
 66
     1
 40
0.003000
 41
0.003000
  0
VERTEX
  8
EBENE_1
  6
CONTINUOUS
 10
-1.862602
 20
0.807236
  0
VERTEX
  8
EBENE_1
  6
CONTINUOUS
 10
-1.808728
 20
0.807236
  0
SEQEND
  8
0
  0
POLYLINE
  8
EBENE_1
  6
CONTINUOUS
 66
     1
 40
0.003000
 41
0.003000
  0
VERTEX
  8
EBENE_1
  6
CONTINUOUS
 10
-1.808728
 20
0.807236
  0
VERTEX
  8
EBENE_1
  6
CONTINUOUS
 10
-1.788528
 20
0.787035
  0
SEQEND
  8
0
  0
POLYLINE
  8
EBENE_1
  6
CONTINUOUS
 66
     1
 40
0.003000
 41
0.003000
  0
VERTEX
  8
EBENE_1
  6
CONTINUOUS
 10
-2.014114
 20
0.787035
  0
VERTEX
  8
EBENE_1
  6
CONTINUOUS
 10
-1.916472
 20
0.787035
  0
SEQEND
  8
0
  0
POLYLINE
  8
EBENE_1
  6
CONTINUOUS
 66
     1
 40
0.003000
 41
0.003000
  0
VERTEX
  8
EBENE_1
  6
CONTINUOUS
 10
-1.677417
 20
1.060602
  0
VERTEX
  8
EBENE_1
  6
CONTINUOUS
 10
-1.542736
 20
1.060602
  0
SEQEND
  8
0
  0
POLYLINE
  8
EBENE_1
  6
CONTINUOUS
 66
     1
 40
0.003000
 41
0.003000
  0
VERTEX
  8
EBENE_1
  6
CONTINUOUS
 10
-1.542736
 20
1.060602
  0
VERTEX
  8
EBENE_1
  6
CONTINUOUS
 10
-1.525902
 20
1.043768
  0
SEQEND
  8
0
  0
POLYLINE
  8
EBENE_1
  6
CONTINUOUS
 66
     1
 40
0.003000
 41
0.003000
  0
VERTEX
  8
EBENE_1
  6
CONTINUOUS
 10
-2.014114
 20
0.938551
  0
VERTEX
  8
EBENE_1
  6
CONTINUOUS
 10
-1.916472
 20
0.938551
  0
SEQEND
  8
0
  0
POLYLINE
  8
EBENE_1
  6
CONTINUOUS
 66
     1
 40
0.003000
 41
0.003000
  0
VERTEX
  8
EBENE_1
  6
CONTINUOUS
 10
-1.542736
 20
1.060602
  0
VERTEX
  8
EBENE_1
  6
CONTINUOUS
 10
-1.542736
 20
0.816496
  0
SEQEND
  8
0
  0
POLYLINE
  8
EBENE_1
  6
CONTINUOUS
 66
     1
 40
0.003000
 41
0.003000
  0
VERTEX
  8
EBENE_1
  6
CONTINUOUS
 10
-1.677417
 20
1.060602
  0
VERTEX
  8
EBENE_1
  6
CONTINUOUS
 10
-1.677417
 20
0.816496
  0
SEQEND
  8
0
  0
POLYLINE
  8
EBENE_1
  6
CONTINUOUS
 66
     1
 40
0.003000
 41
0.003000
  0
VERTEX
  8
EBENE_1
  6
CONTINUOUS
 10
-1.690882
 20
0.787035
  0
VERTEX
  8
EBENE_1
  6
CONTINUOUS
 10
-1.690882
 20
1.090067
  0
SEQEND
  8
0
  0
POLYLINE
  8
EBENE_1
  6
CONTINUOUS
 66
     1
 40
0.003000
 41
0.003000
  0
VERTEX
  8
EBENE_1
  6
CONTINUOUS
 10
-1.788528
 20
1.090067
  0
VERTEX
  8
EBENE_1
  6
CONTINUOUS
 10
-1.788528
 20
0.787035
  0
SEQEND
  8
0
  0
POLYLINE
  8
EBENE_1
  6
CONTINUOUS
 66
     1
 40
0.003000
 41
0.003000
  0
VERTEX
  8
EBENE_1
  6
CONTINUOUS
 10
-1.808728
 20
0.807236
  0
VERTEX
  8
EBENE_1
  6
CONTINUOUS
 10
-1.808728
 20
1.069862
  0
SEQEND
  8
0
  0
POLYLINE
  8
EBENE_1
  6
CONTINUOUS
 66
     1
 40
0.003000
 41
0.003000
  0
VERTEX
  8
EBENE_1
  6
CONTINUOUS
 10
-3.003220
 20
-0.486531
  0
VERTEX
  8
EBENE_1
  6
CONTINUOUS
 10
-2.944299
 20
-0.486531
  0
SEQEND
  8
0
  0
POLYLINE
  8
EBENE_1
  6
CONTINUOUS
 66
     1
 40
0.003000
 41
0.003000
  0
VERTEX
  8
EBENE_1
  6
CONTINUOUS
 10
-2.944299
 20
-0.618685
  0
VERTEX
  8
EBENE_1
  6
CONTINUOUS
 10
-2.944299
 20
-0.486531
  0
SEQEND
  8
0
  0
POLYLINE
  8
EBENE_1
  6
CONTINUOUS
 66
     1
 40
0.003000
 41
0.003000
  0
VERTEX
  8
EBENE_1
  6
CONTINUOUS
 10
-3.003220
 20
-0.618685
  0
VERTEX
  8
EBENE_1
  6
CONTINUOUS
 10
-3.003220
 20
-0.486531
  0
SEQEND
  8
0
  0
POLYLINE
  8
EBENE_1
  6
CONTINUOUS
 66
     1
 40
0.003000
 41
0.003000
  0
VERTEX
  8
EBENE_1
  6
CONTINUOUS
 10
-3.154736
 20
-0.488213
  0
VERTEX
  8
EBENE_1
  6
CONTINUOUS
 10
-3.003220
 20
-0.488213
  0
SEQEND
  8
0
  0
POLYLINE
  8
EBENE_1
  6
CONTINUOUS
 66
     1
 40
0.003000
 41
0.003000
  0
VERTEX
  8
EBENE_1
  6
CONTINUOUS
 10
-3.174937
 20
-0.495567
  0
VERTEX
  8
EBENE_1
  6
CONTINUOUS
 10
-3.154736
 20
-0.488213
  0
SEQEND
  8
0
  0
POLYLINE
  8
EBENE_1
  6
CONTINUOUS
 66
     1
 40
0.003000
 41
0.003000
  0
VERTEX
  8
EBENE_1
  6
CONTINUOUS
 10
-3.326453
 20
-0.416665
  0
VERTEX
  8
EBENE_1
  6
CONTINUOUS
 10
-3.275949
 20
-0.416665
  0
SEQEND
  8
0
  0
POLYLINE
  8
EBENE_1
  6
CONTINUOUS
 66
     1
 40
0.003000
 41
0.003000
  0
VERTEX
  8
EBENE_1
  6
CONTINUOUS
 10
-3.275949
 20
-0.433500
  0
VERTEX
  8
EBENE_1
  6
CONTINUOUS
 10
-3.174937
 20
-0.433500
  0
SEQEND
  8
0
  0
POLYLINE
  8
EBENE_1
  6
CONTINUOUS
 66
     1
 40
0.003000
 41
0.003000
  0
VERTEX
  8
EBENE_1
  6
CONTINUOUS
 10
-3.174937
 20
-0.450335
  0
VERTEX
  8
EBENE_1
  6
CONTINUOUS
 10
-3.174937
 20
-0.433500
  0
SEQEND
  8
0
  0
POLYLINE
  8
EBENE_1
  6
CONTINUOUS
 66
     1
 40
0.003000
 41
0.003000
  0
VERTEX
  8
EBENE_1
  6
CONTINUOUS
 10
-3.275949
 20
-0.618685
  0
VERTEX
  8
EBENE_1
  6
CONTINUOUS
 10
-3.275949
 20
-0.416665
  0
SEQEND
  8
0
  0
POLYLINE
  8
EBENE_1
  6
CONTINUOUS
 66
     1
 40
0.003000
 41
0.003000
  0
VERTEX
  8
EBENE_1
  6
CONTINUOUS
 10
-3.326453
 20
-0.618685
  0
VERTEX
  8
EBENE_1
  6
CONTINUOUS
 10
-3.326453
 20
-0.471949
  0
SEQEND
  8
0
  0
POLYLINE
  8
EBENE_1
  6
CONTINUOUS
 66
     1
 40
0.003000
 41
0.003000
  0
VERTEX
  8
EBENE_1
  6
CONTINUOUS
 10
-3.326453
 20
-0.471949
  0
VERTEX
  8
EBENE_1
  6
CONTINUOUS
 10
-3.326453
 20
-0.416665
  0
SEQEND
  8
0
  0
POLYLINE
  8
EBENE_1
  6
CONTINUOUS
 66
     1
 40
0.003000
 41
0.003000
  0
VERTEX
  8
EBENE_1
  6
CONTINUOUS
 10
-3.380327
 20
-0.487370
  0
VERTEX
  8
EBENE_1
  6
CONTINUOUS
 10
-3.326453
 20
-0.487370
  0
SEQEND
  8
0
  0
POLYLINE
  8
EBENE_1
  6
CONTINUOUS
 66
     1
 40
0.003000
 41
0.003000
  0
VERTEX
  8
EBENE_1
  6
CONTINUOUS
 10
-3.494803
 20
-0.618685
  0
VERTEX
  8
EBENE_1
  6
CONTINUOUS
 10
-3.494803
 20
-0.484004
  0
SEQEND
  8
0
  0
POLYLINE
  8
EBENE_1
  6
CONTINUOUS
 66
     1
 40
0.003000
 41
0.003000
  0
VERTEX
  8
EBENE_1
  6
CONTINUOUS
 10
-3.494803
 20
-0.484004
  0
VERTEX
  8
EBENE_1
  6
CONTINUOUS
 10
-3.477969
 20
-0.467169
  0
SEQEND
  8
0
  0
POLYLINE
  8
EBENE_1
  6
CONTINUOUS
 66
     1
 40
0.003000
 41
0.003000
  0
VERTEX
  8
EBENE_1
  6
CONTINUOUS
 10
-3.477969
 20
-0.467169
  0
VERTEX
  8
EBENE_1
  6
CONTINUOUS
 10
-3.400528
 20
-0.467169
  0
SEQEND
  8
0
  0
POLYLINE
  8
EBENE_1
  6
CONTINUOUS
 66
     1
 40
0.003000
 41
0.003000
  0
VERTEX
  8
EBENE_1
  6
CONTINUOUS
 10
-3.400528
 20
-0.467169
  0
VERTEX
  8
EBENE_1
  6
CONTINUOUS
 10
-3.380327
 20
-0.487370
  0
SEQEND
  8
0
  0
POLYLINE
  8
EBENE_1
  6
CONTINUOUS
 66
     1
 40
0.003000
 41
0.003000
  0
VERTEX
  8
EBENE_1
  6
CONTINUOUS
 10
-3.329823
 20
-0.442760
  0
VERTEX
  8
EBENE_1
  6
CONTINUOUS
 10
-3.326453
 20
-0.442760
  0
SEQEND
  8
0
  0
POLYLINE
  8
EBENE_1
  6
CONTINUOUS
 66
     1
 40
0.003000
 41
0.003000
  0
VERTEX
  8
EBENE_1
  6
CONTINUOUS
 10
-3.329823
 20
-0.466118
  0
VERTEX
  8
EBENE_1
  6
CONTINUOUS
 10
-3.329823
 20
-0.442760
  0
SEQEND
  8
0
  0
POLYLINE
  8
EBENE_1
  6
CONTINUOUS
 66
     1
 40
0.003000
 41
0.003000
  0
VERTEX
  8
EBENE_1
  6
CONTINUOUS
 10
-3.326453
 20
-0.471949
  0
VERTEX
  8
EBENE_1
  6
CONTINUOUS
 10
-3.329823
 20
-0.466118
  0
SEQEND
  8
0
  0
POLYLINE
  8
EBENE_1
  6
CONTINUOUS
 66
     1
 40
0.003000
 41
0.003000
  0
VERTEX
  8
EBENE_1
  6
CONTINUOUS
 10
-3.003220
 20
-0.750839
  0
VERTEX
  8
EBENE_1
  6
CONTINUOUS
 10
-2.944299
 20
-0.750839
  0
SEQEND
  8
0
  0
POLYLINE
  8
EBENE_1
  6
CONTINUOUS
 66
     1
 40
0.003000
 41
0.003000
  0
VERTEX
  8
EBENE_1
  6
CONTINUOUS
 10
-2.944299
 20
-0.750839
  0
VERTEX
  8
EBENE_1
  6
CONTINUOUS
 10
-2.944299
 20
-0.618685
  0
SEQEND
  8
0
  0
POLYLINE
  8
EBENE_1
  6
CONTINUOUS
 66
     1
 40
0.003000
 41
0.003000
  0
VERTEX
  8
EBENE_1
  6
CONTINUOUS
 10
-3.003220
 20
-0.750839
  0
VERTEX
  8
EBENE_1
  6
CONTINUOUS
 10
-3.003220
 20
-0.618685
  0
SEQEND
  8
0
  0
POLYLINE
  8
EBENE_1
  6
CONTINUOUS
 66
     1
 40
0.003000
 41
0.003000
  0
VERTEX
  8
EBENE_1
  6
CONTINUOUS
 10
-3.154736
 20
-0.749157
  0
VERTEX
  8
EBENE_1
  6
CONTINUOUS
 10
-3.003220
 20
-0.749157
  0
SEQEND
  8
0
  0
POLYLINE
  8
EBENE_1
  6
CONTINUOUS
 66
     1
 40
0.003000
 41
0.003000
  0
VERTEX
  8
EBENE_1
  6
CONTINUOUS
 10
-3.174937
 20
-0.741803
  0
VERTEX
  8
EBENE_1
  6
CONTINUOUS
 10
-3.154736
 20
-0.749157
  0
SEQEND
  8
0
  0
POLYLINE
  8
EBENE_1
  6
CONTINUOUS
 66
     1
 40
0.003000
 41
0.003000
  0
VERTEX
  8
EBENE_1
  6
CONTINUOUS
 10
-3.326453
 20
-0.820705
  0
VERTEX
  8
EBENE_1
  6
CONTINUOUS
 10
-3.275949
 20
-0.820705
  0
SEQEND
  8
0
  0
POLYLINE
  8
EBENE_1
  6
CONTINUOUS
 66
     1
 40
0.003000
 41
0.003000
  0
VERTEX
  8
EBENE_1
  6
CONTINUOUS
 10
-3.275949
 20
-0.803870
  0
VERTEX
  8
EBENE_1
  6
CONTINUOUS
 10
-3.174937
 20
-0.803870
  0
SEQEND
  8
0
  0
POLYLINE
  8
EBENE_1
  6
CONTINUOUS
 66
     1
 40
0.003000
 41
0.003000
  0
VERTEX
  8
EBENE_1
  6
CONTINUOUS
 10
-3.174937
 20
-0.787035
  0
VERTEX
  8
EBENE_1
  6
CONTINUOUS
 10
-3.174937
 20
-0.803870
  0
SEQEND
  8
0
  0
POLYLINE
  8
EBENE_1
  6
CONTINUOUS
 66
     1
 40
0.003000
 41
0.003000
  0
VERTEX
  8
EBENE_1
  6
CONTINUOUS
 10
-3.275949
 20
-0.820705
  0
VERTEX
  8
EBENE_1
  6
CONTINUOUS
 10
-3.275949
 20
-0.618685
  0
SEQEND
  8
0
  0
POLYLINE
  8
EBENE_1
  6
CONTINUOUS
 66
     1
 40
0.003000
 41
0.003000
  0
VERTEX
  8
EBENE_1
  6
CONTINUOUS
 10
-3.326453
 20
-0.765421
  0
VERTEX
  8
EBENE_1
  6
CONTINUOUS
 10
-3.326453
 20
-0.618685
  0
SEQEND
  8
0
  0
POLYLINE
  8
EBENE_1
  6
CONTINUOUS
 66
     1
 40
0.003000
 41
0.003000
  0
VERTEX
  8
EBENE_1
  6
CONTINUOUS
 10
-3.326453
 20
-0.820705
  0
VERTEX
  8
EBENE_1
  6
CONTINUOUS
 10
-3.326453
 20
-0.765421
  0
SEQEND
  8
0
  0
POLYLINE
  8
EBENE_1
  6
CONTINUOUS
 66
     1
 40
0.003000
 41
0.003000
  0
VERTEX
  8
EBENE_1
  6
CONTINUOUS
 10
-3.380327
 20
-0.750000
  0
VERTEX
  8
EBENE_1
  6
CONTINUOUS
 10
-3.326453
 20
-0.750000
  0
SEQEND
  8
0
  0
POLYLINE
  8
EBENE_1
  6
CONTINUOUS
 66
     1
 40
0.003000
 41
0.003000
  0
VERTEX
  8
EBENE_1
  6
CONTINUOUS
 10
-3.494803
 20
-0.618685
  0
VERTEX
  8
EBENE_1
  6
CONTINUOUS
 10
-3.494803
 20
-0.753366
  0
SEQEND
  8
0
  0
POLYLINE
  8
EBENE_1
  6
CONTINUOUS
 66
     1
 40
0.003000
 41
0.003000
  0
VERTEX
  8
EBENE_1
  6
CONTINUOUS
 10
-3.494803
 20
-0.753366
  0
VERTEX
  8
EBENE_1
  6
CONTINUOUS
 10
-3.477969
 20
-0.770201
  0
SEQEND
  8
0
  0
POLYLINE
  8
EBENE_1
  6
CONTINUOUS
 66
     1
 40
0.003000
 41
0.003000
  0
VERTEX
  8
EBENE_1
  6
CONTINUOUS
 10
-3.477969
 20
-0.770201
  0
VERTEX
  8
EBENE_1
  6
CONTINUOUS
 10
-3.400528
 20
-0.770201
  0
SEQEND
  8
0
  0
POLYLINE
  8
EBENE_1
  6
CONTINUOUS
 66
     1
 40
0.003000
 41
0.003000
  0
VERTEX
  8
EBENE_1
  6
CONTINUOUS
 10
-3.400528
 20
-0.770201
  0
VERTEX
  8
EBENE_1
  6
CONTINUOUS
 10
-3.380327
 20
-0.750000
  0
SEQEND
  8
0
  0
POLYLINE
  8
EBENE_1
  6
CONTINUOUS
 66
     1
 40
0.003000
 41
0.003000
  0
VERTEX
  8
EBENE_1
  6
CONTINUOUS
 10
-3.329823
 20
-0.794610
  0
VERTEX
  8
EBENE_1
  6
CONTINUOUS
 10
-3.326453
 20
-0.794610
  0
SEQEND
  8
0
  0
POLYLINE
  8
EBENE_1
  6
CONTINUOUS
 66
     1
 40
0.003000
 41
0.003000
  0
VERTEX
  8
EBENE_1
  6
CONTINUOUS
 10
-3.329823
 20
-0.771252
  0
VERTEX
  8
EBENE_1
  6
CONTINUOUS
 10
-3.329823
 20
-0.794610
  0
SEQEND
  8
0
  0
POLYLINE
  8
EBENE_1
  6
CONTINUOUS
 66
     1
 40
0.003000
 41
0.003000
  0
VERTEX
  8
EBENE_1
  6
CONTINUOUS
 10
-3.329823
 20
-0.771252
  0
VERTEX
  8
EBENE_1
  6
CONTINUOUS
 10
-3.326453
 20
-0.765421
  0
SEQEND
  8
0
  0
POLYLINE
  8
EBENE_1
  6
CONTINUOUS
 66
     1
 40
0.003000
 41
0.003000
  0
VERTEX
  8
EBENE_1
  6
CONTINUOUS
 10
-3.174937
 20
-0.618685
  0
VERTEX
  8
EBENE_1
  6
CONTINUOUS
 10
-3.174937
 20
-0.450335
  0
SEQEND
  8
0
  0
POLYLINE
  8
EBENE_1
  6
CONTINUOUS
 66
     1
 40
0.003000
 41
0.003000
  0
VERTEX
  8
EBENE_1
  6
CONTINUOUS
 10
-3.174937
 20
-0.787035
  0
VERTEX
  8
EBENE_1
  6
CONTINUOUS
 10
-3.174937
 20
-0.618685
  0
SEQEND
  8
0
  0
POLYLINE
  8
EBENE_1
  6
CONTINUOUS
 66
     1
 40
0.003000
 41
0.003000
  0
VERTEX
  8
EBENE_1
  6
CONTINUOUS
 10
-3.477969
 20
-0.467169
  0
VERTEX
  8
EBENE_1
  6
CONTINUOUS
 10
-3.477969
 20
-0.618685
  0
SEQEND
  8
0
  0
POLYLINE
  8
EBENE_1
  6
CONTINUOUS
 66
     1
 40
0.003000
 41
0.003000
  0
VERTEX
  8
EBENE_1
  6
CONTINUOUS
 10
-3.477969
 20
-0.770201
  0
VERTEX
  8
EBENE_1
  6
CONTINUOUS
 10
-3.477969
 20
-0.618685
  0
SEQEND
  8
0
  0
POLYLINE
  8
EBENE_1
  6
CONTINUOUS
 66
     1
 40
0.003000
 41
0.003000
  0
VERTEX
  8
EBENE_1
  6
CONTINUOUS
 10
-3.400528
 20
-0.467169
  0
VERTEX
  8
EBENE_1
  6
CONTINUOUS
 10
-3.400528
 20
-0.618685
  0
SEQEND
  8
0
  0
POLYLINE
  8
EBENE_1
  6
CONTINUOUS
 66
     1
 40
0.003000
 41
0.003000
  0
VERTEX
  8
EBENE_1
  6
CONTINUOUS
 10
-3.380327
 20
-0.487370
  0
VERTEX
  8
EBENE_1
  6
CONTINUOUS
 10
-3.380327
 20
-0.618685
  0
SEQEND
  8
0
  0
POLYLINE
  8
EBENE_1
  6
CONTINUOUS
 66
     1
 40
0.003000
 41
0.003000
  0
VERTEX
  8
EBENE_1
  6
CONTINUOUS
 10
-3.380327
 20
-0.750000
  0
VERTEX
  8
EBENE_1
  6
CONTINUOUS
 10
-3.380327
 20
-0.618685
  0
SEQEND
  8
0
  0
POLYLINE
  8
EBENE_1
  6
CONTINUOUS
 66
     1
 40
0.003000
 41
0.003000
  0
VERTEX
  8
EBENE_1
  6
CONTINUOUS
 10
-3.400528
 20
-0.770201
  0
VERTEX
  8
EBENE_1
  6
CONTINUOUS
 10
-3.400528
 20
-0.618685
  0
SEQEND
  8
0
  0
POLYLINE
  8
EBENE_1
  6
CONTINUOUS
 66
     1
 40
0.003000
 41
0.003000
  0
VERTEX
  8
EBENE_1
  6
CONTINUOUS
 10
-3.154736
 20
-0.488213
  0
VERTEX
  8
EBENE_1
  6
CONTINUOUS
 10
-3.154736
 20
-0.618685
  0
SEQEND
  8
0
  0
POLYLINE
  8
EBENE_1
  6
CONTINUOUS
 66
     1
 40
0.003000
 41
0.003000
  0
VERTEX
  8
EBENE_1
  6
CONTINUOUS
 10
-3.154736
 20
-0.749157
  0
VERTEX
  8
EBENE_1
  6
CONTINUOUS
 10
-3.154736
 20
-0.618685
  0
SEQEND
  8
0
  0
POLYLINE
  8
EBENE_1
  6
CONTINUOUS
 66
     1
 40
0.003000
 41
0.003000
  0
VERTEX
  8
EBENE_1
  6
CONTINUOUS
 10
-2.014114
 20
-0.456528
  0
VERTEX
  8
EBENE_1
  6
CONTINUOUS
 10
-2.014114
 20
-0.433500
  0
SEQEND
  8
0
  0
POLYLINE
  8
EBENE_1
  6
CONTINUOUS
 66
     1
 40
0.003000
 41
0.003000
  0
VERTEX
  8
EBENE_1
  6
CONTINUOUS
 10
-1.913106
 20
-0.408248
  0
VERTEX
  8
EBENE_1
  6
CONTINUOUS
 10
-1.862602
 20
-0.408248
  0
SEQEND
  8
0
  0
POLYLINE
  8
EBENE_1
  6
CONTINUOUS
 66
     1
 40
0.003000
 41
0.003000
  0
VERTEX
  8
EBENE_1
  6
CONTINUOUS
 10
-2.014114
 20
-0.433500
  0
VERTEX
  8
EBENE_1
  6
CONTINUOUS
 10
-1.913106
 20
-0.433500
  0
SEQEND
  8
0
  0
POLYLINE
  8
EBENE_1
  6
CONTINUOUS
 66
     1
 40
0.003000
 41
0.003000
  0
VERTEX
  8
EBENE_1
  6
CONTINUOUS
 10
-1.862602
 20
-0.618685
  0
VERTEX
  8
EBENE_1
  6
CONTINUOUS
 10
-1.862602
 20
-0.455957
  0
SEQEND
  8
0
  0
POLYLINE
  8
EBENE_1
  6
CONTINUOUS
 66
     1
 40
0.003000
 41
0.003000
  0
VERTEX
  8
EBENE_1
  6
CONTINUOUS
 10
-1.862602
 20
-0.455957
  0
VERTEX
  8
EBENE_1
  6
CONTINUOUS
 10
-1.862602
 20
-0.408248
  0
SEQEND
  8
0
  0
POLYLINE
  8
EBENE_1
  6
CONTINUOUS
 66
     1
 40
0.003000
 41
0.003000
  0
VERTEX
  8
EBENE_1
  6
CONTINUOUS
 10
-1.913106
 20
-0.618685
  0
VERTEX
  8
EBENE_1
  6
CONTINUOUS
 10
-1.913106
 20
-0.408248
  0
SEQEND
  8
0
  0
POLYLINE
  8
EBENE_1
  6
CONTINUOUS
 66
     1
 40
0.003000
 41
0.003000
  0
VERTEX
  8
EBENE_1
  6
CONTINUOUS
 10
-1.862602
 20
-0.471378
  0
VERTEX
  8
EBENE_1
  6
CONTINUOUS
 10
-1.812094
 20
-0.471378
  0
SEQEND
  8
0
  0
POLYLINE
  8
EBENE_1
  6
CONTINUOUS
 66
     1
 40
0.003000
 41
0.003000
  0
VERTEX
  8
EBENE_1
  6
CONTINUOUS
 10
-1.593240
 20
-0.618685
  0
VERTEX
  8
EBENE_1
  6
CONTINUOUS
 10
-1.593240
 20
-0.467169
  0
SEQEND
  8
0
  0
POLYLINE
  8
EBENE_1
  6
CONTINUOUS
 66
     1
 40
0.003000
 41
0.003000
  0
VERTEX
  8
EBENE_1
  6
CONTINUOUS
 10
-1.610075
 20
-0.450335
  0
VERTEX
  8
EBENE_1
  6
CONTINUOUS
 10
-1.593240
 20
-0.467169
  0
SEQEND
  8
0
  0
POLYLINE
  8
EBENE_1
  6
CONTINUOUS
 66
     1
 40
0.003000
 41
0.003000
  0
VERTEX
  8
EBENE_1
  6
CONTINUOUS
 10
-1.791051
 20
-0.450335
  0
VERTEX
  8
EBENE_1
  6
CONTINUOUS
 10
-1.610075
 20
-0.450335
  0
SEQEND
  8
0
  0
POLYLINE
  8
EBENE_1
  6
CONTINUOUS
 66
     1
 40
0.003000
 41
0.003000
  0
VERTEX
  8
EBENE_1
  6
CONTINUOUS
 10
-1.812094
 20
-0.471378
  0
VERTEX
  8
EBENE_1
  6
CONTINUOUS
 10
-1.791051
 20
-0.450335
  0
SEQEND
  8
0
  0
POLYLINE
  8
EBENE_1
  6
CONTINUOUS
 66
     1
 40
0.003000
 41
0.003000
  0
VERTEX
  8
EBENE_1
  6
CONTINUOUS
 10
-1.593240
 20
-0.471378
  0
VERTEX
  8
EBENE_1
  6
CONTINUOUS
 10
-1.441724
 20
-0.471378
  0
SEQEND
  8
0
  0
POLYLINE
  8
EBENE_1
  6
CONTINUOUS
 66
     1
 40
0.003000
 41
0.003000
  0
VERTEX
  8
EBENE_1
  6
CONTINUOUS
 10
-1.441724
 20
-0.471378
  0
VERTEX
  8
EBENE_1
  6
CONTINUOUS
 10
-1.424890
 20
-0.488213
  0
SEQEND
  8
0
  0
POLYLINE
  8
EBENE_1
  6
CONTINUOUS
 66
     1
 40
0.003000
 41
0.003000
  0
VERTEX
  8
EBENE_1
  6
CONTINUOUS
 10
-1.424890
 20
-0.618685
  0
VERTEX
  8
EBENE_1
  6
CONTINUOUS
 10
-1.424890
 20
-0.488213
  0
SEQEND
  8
0
  0
POLYLINE
  8
EBENE_1
  6
CONTINUOUS
 66
     1
 40
0.003000
 41
0.003000
  0
VERTEX
  8
EBENE_1
  6
CONTINUOUS
 10
-1.862602
 20
-0.426764
  0
VERTEX
  8
EBENE_1
  6
CONTINUOUS
 10
-1.859232
 20
-0.426764
  0
SEQEND
  8
0
  0
POLYLINE
  8
EBENE_1
  6
CONTINUOUS
 66
     1
 40
0.003000
 41
0.003000
  0
VERTEX
  8
EBENE_1
  6
CONTINUOUS
 10
-1.859232
 20
-0.450126
  0
VERTEX
  8
EBENE_1
  6
CONTINUOUS
 10
-1.859232
 20
-0.426764
  0
SEQEND
  8
0
  0
POLYLINE
  8
EBENE_1
  6
CONTINUOUS
 66
     1
 40
0.003000
 41
0.003000
  0
VERTEX
  8
EBENE_1
  6
CONTINUOUS
 10
-1.862602
 20
-0.455957
  0
VERTEX
  8
EBENE_1
  6
CONTINUOUS
 10
-1.859232
 20
-0.450126
  0
SEQEND
  8
0
  0
POLYLINE
  8
EBENE_1
  6
CONTINUOUS
 66
     1
 40
0.003000
 41
0.003000
  0
VERTEX
  8
EBENE_1
  6
CONTINUOUS
 10
-2.014114
 20
-0.780843
  0
VERTEX
  8
EBENE_1
  6
CONTINUOUS
 10
-2.014114
 20
-0.803870
  0
SEQEND
  8
0
  0
POLYLINE
  8
EBENE_1
  6
CONTINUOUS
 66
     1
 40
0.003000
 41
0.003000
  0
VERTEX
  8
EBENE_1
  6
CONTINUOUS
 10
-1.913106
 20
-0.829122
  0
VERTEX
  8
EBENE_1
  6
CONTINUOUS
 10
-1.862602
 20
-0.829122
  0
SEQEND
  8
0
  0
POLYLINE
  8
EBENE_1
  6
CONTINUOUS
 66
     1
 40
0.003000
 41
0.003000
  0
VERTEX
  8
EBENE_1
  6
CONTINUOUS
 10
-2.014114
 20
-0.803870
  0
VERTEX
  8
EBENE_1
  6
CONTINUOUS
 10
-1.913106
 20
-0.803870
  0
SEQEND
  8
0
  0
POLYLINE
  8
EBENE_1
  6
CONTINUOUS
 66
     1
 40
0.003000
 41
0.003000
  0
VERTEX
  8
EBENE_1
  6
CONTINUOUS
 10
-1.862602
 20
-0.781413
  0
VERTEX
  8
EBENE_1
  6
CONTINUOUS
 10
-1.862602
 20
-0.618685
  0
SEQEND
  8
0
  0
POLYLINE
  8
EBENE_1
  6
CONTINUOUS
 66
     1
 40
0.003000
 41
0.003000
  0
VERTEX
  8
EBENE_1
  6
CONTINUOUS
 10
-1.862602
 20
-0.829122
  0
VERTEX
  8
EBENE_1
  6
CONTINUOUS
 10
-1.862602
 20
-0.781413
  0
SEQEND
  8
0
  0
POLYLINE
  8
EBENE_1
  6
CONTINUOUS
 66
     1
 40
0.003000
 41
0.003000
  0
VERTEX
  8
EBENE_1
  6
CONTINUOUS
 10
-1.913106
 20
-0.829122
  0
VERTEX
  8
EBENE_1
  6
CONTINUOUS
 10
-1.913106
 20
-0.618685
  0
SEQEND
  8
0
  0
POLYLINE
  8
EBENE_1
  6
CONTINUOUS
 66
     1
 40
0.003000
 41
0.003000
  0
VERTEX
  8
EBENE_1
  6
CONTINUOUS
 10
-1.862602
 20
-0.765992
  0
VERTEX
  8
EBENE_1
  6
CONTINUOUS
 10
-1.812094
 20
-0.765992
  0
SEQEND
  8
0
  0
POLYLINE
  8
EBENE_1
  6
CONTINUOUS
 66
     1
 40
0.003000
 41
0.003000
  0
VERTEX
  8
EBENE_1
  6
CONTINUOUS
 10
-1.593240
 20
-0.770201
  0
VERTEX
  8
EBENE_1
  6
CONTINUOUS
 10
-1.593240
 20
-0.618685
  0
SEQEND
  8
0
  0
POLYLINE
  8
EBENE_1
  6
CONTINUOUS
 66
     1
 40
0.003000
 41
0.003000
  0
VERTEX
  8
EBENE_1
  6
CONTINUOUS
 10
-1.610075
 20
-0.787035
  0
VERTEX
  8
EBENE_1
  6
CONTINUOUS
 10
-1.593240
 20
-0.770201
  0
SEQEND
  8
0
  0
POLYLINE
  8
EBENE_1
  6
CONTINUOUS
 66
     1
 40
0.003000
 41
0.003000
  0
VERTEX
  8
EBENE_1
  6
CONTINUOUS
 10
-1.791051
 20
-0.787035
  0
VERTEX
  8
EBENE_1
  6
CONTINUOUS
 10
-1.610075
 20
-0.787035
  0
SEQEND
  8
0
  0
POLYLINE
  8
EBENE_1
  6
CONTINUOUS
 66
     1
 40
0.003000
 41
0.003000
  0
VERTEX
  8
EBENE_1
  6
CONTINUOUS
 10
-1.812094
 20
-0.765992
  0
VERTEX
  8
EBENE_1
  6
CONTINUOUS
 10
-1.791051
 20
-0.787035
  0
SEQEND
  8
0
  0
POLYLINE
  8
EBENE_1
  6
CONTINUOUS
 66
     1
 40
0.003000
 41
0.003000
  0
VERTEX
  8
EBENE_1
  6
CONTINUOUS
 10
-1.593240
 20
-0.765992
  0
VERTEX
  8
EBENE_1
  6
CONTINUOUS
 10
-1.441724
 20
-0.765992
  0
SEQEND
  8
0
  0
POLYLINE
  8
EBENE_1
  6
CONTINUOUS
 66
     1
 40
0.003000
 41
0.003000
  0
VERTEX
  8
EBENE_1
  6
CONTINUOUS
 10
-1.441724
 20
-0.765992
  0
VERTEX
  8
EBENE_1
  6
CONTINUOUS
 10
-1.424890
 20
-0.749157
  0
SEQEND
  8
0
  0
POLYLINE
  8
EBENE_1
  6
CONTINUOUS
 66
     1
 40
0.003000
 41
0.003000
  0
VERTEX
  8
EBENE_1
  6
CONTINUOUS
 10
-1.424890
 20
-0.749157
  0
VERTEX
  8
EBENE_1
  6
CONTINUOUS
 10
-1.424890
 20
-0.618685
  0
SEQEND
  8
0
  0
POLYLINE
  8
EBENE_1
  6
CONTINUOUS
 66
     1
 40
0.003000
 41
0.003000
  0
VERTEX
  8
EBENE_1
  6
CONTINUOUS
 10
-1.862602
 20
-0.810602
  0
VERTEX
  8
EBENE_1
  6
CONTINUOUS
 10
-1.859232
 20
-0.810602
  0
SEQEND
  8
0
  0
POLYLINE
  8
EBENE_1
  6
CONTINUOUS
 66
     1
 40
0.003000
 41
0.003000
  0
VERTEX
  8
EBENE_1
  6
CONTINUOUS
 10
-1.859232
 20
-0.787244
  0
VERTEX
  8
EBENE_1
  6
CONTINUOUS
 10
-1.859232
 20
-0.810602
  0
SEQEND
  8
0
  0
POLYLINE
  8
EBENE_1
  6
CONTINUOUS
 66
     1
 40
0.003000
 41
0.003000
  0
VERTEX
  8
EBENE_1
  6
CONTINUOUS
 10
-1.859232
 20
-0.787244
  0
VERTEX
  8
EBENE_1
  6
CONTINUOUS
 10
-1.862602
 20
-0.781413
  0
SEQEND
  8
0
  0
POLYLINE
  8
EBENE_1
  6
CONTINUOUS
 66
     1
 40
0.003000
 41
0.003000
  0
VERTEX
  8
EBENE_1
  6
CONTINUOUS
 10
-2.014114
 20
-0.456528
  0
VERTEX
  8
EBENE_1
  6
CONTINUOUS
 10
-2.014114
 20
-0.780843
  0
SEQEND
  8
0
  0
POLYLINE
  8
EBENE_1
  6
CONTINUOUS
 66
     1
 40
0.003000
 41
0.003000
  0
VERTEX
  8
EBENE_1
  6
CONTINUOUS
 10
-1.812094
 20
-0.765992
  0
VERTEX
  8
EBENE_1
  6
CONTINUOUS
 10
-1.812094
 20
-0.618685
  0
SEQEND
  8
0
  0
POLYLINE
  8
EBENE_1
  6
CONTINUOUS
 66
     1
 40
0.003000
 41
0.003000
  0
VERTEX
  8
EBENE_1
  6
CONTINUOUS
 10
-1.791051
 20
-0.787035
  0
VERTEX
  8
EBENE_1
  6
CONTINUOUS
 10
-1.791051
 20
-0.618685
  0
SEQEND
  8
0
  0
POLYLINE
  8
EBENE_1
  6
CONTINUOUS
 66
     1
 40
0.003000
 41
0.003000
  0
VERTEX
  8
EBENE_1
  6
CONTINUOUS
 10
-1.610075
 20
-0.787035
  0
VERTEX
  8
EBENE_1
  6
CONTINUOUS
 10
-1.610075
 20
-0.618685
  0
SEQEND
  8
0
  0
POLYLINE
  8
EBENE_1
  6
CONTINUOUS
 66
     1
 40
0.003000
 41
0.003000
  0
VERTEX
  8
EBENE_1
  6
CONTINUOUS
 10
-1.441724
 20
-0.765992
  0
VERTEX
  8
EBENE_1
  6
CONTINUOUS
 10
-1.441724
 20
-0.618685
  0
SEQEND
  8
0
  0
POLYLINE
  8
EBENE_1
  6
CONTINUOUS
 66
     1
 40
0.003000
 41
0.003000
  0
VERTEX
  8
EBENE_1
  6
CONTINUOUS
 10
-1.441724
 20
-0.471378
  0
VERTEX
  8
EBENE_1
  6
CONTINUOUS
 10
-1.441724
 20
-0.618685
  0
SEQEND
  8
0
  0
POLYLINE
  8
EBENE_1
  6
CONTINUOUS
 66
     1
 40
0.003000
 41
0.003000
  0
VERTEX
  8
EBENE_1
  6
CONTINUOUS
 10
-1.610075
 20
-0.450335
  0
VERTEX
  8
EBENE_1
  6
CONTINUOUS
 10
-1.610075
 20
-0.618685
  0
SEQEND
  8
0
  0
POLYLINE
  8
EBENE_1
  6
CONTINUOUS
 66
     1
 40
0.003000
 41
0.003000
  0
VERTEX
  8
EBENE_1
  6
CONTINUOUS
 10
-1.791051
 20
-0.450335
  0
VERTEX
  8
EBENE_1
  6
CONTINUOUS
 10
-1.791051
 20
-0.618685
  0
SEQEND
  8
0
  0
POLYLINE
  8
EBENE_1
  6
CONTINUOUS
 66
     1
 40
0.003000
 41
0.003000
  0
VERTEX
  8
EBENE_1
  6
CONTINUOUS
 10
-1.812094
 20
-0.471378
  0
VERTEX
  8
EBENE_1
  6
CONTINUOUS
 10
-1.812094
 20
-0.618685
  0
SEQEND
  8
0
  0
POLYLINE
  8
EBENE_1
  6
CONTINUOUS
 66
     1
 40
0.003000
 41
0.003000
  0
VERTEX
  8
EBENE_1
  6
CONTINUOUS
 10
1.297539
 20
2.638886
  0
VERTEX
  8
EBENE_1
  6
CONTINUOUS
 10
1.339626
 20
2.638886
  0
SEQEND
  8
0
  0
POLYLINE
  8
EBENE_1
  6
CONTINUOUS
 66
     1
 40
0.003000
 41
0.003000
  0
VERTEX
  8
EBENE_1
  6
CONTINUOUS
 10
1.339626
 20
2.613634
  0
VERTEX
  8
EBENE_1
  6
CONTINUOUS
 10
1.449055
 20
2.613634
  0
SEQEND
  8
0
  0
POLYLINE
  8
EBENE_1
  6
CONTINUOUS
 66
     1
 40
0.003000
 41
0.003000
  0
VERTEX
  8
EBENE_1
  6
CONTINUOUS
 10
1.240299
 20
2.558921
  0
VERTEX
  8
EBENE_1
  6
CONTINUOUS
 10
1.297539
 20
2.558921
  0
SEQEND
  8
0
  0
POLYLINE
  8
EBENE_1
  6
CONTINUOUS
 66
     1
 40
0.003000
 41
0.003000
  0
VERTEX
  8
EBENE_1
  6
CONTINUOUS
 10
1.144677
 20
2.579965
  0
VERTEX
  8
EBENE_1
  6
CONTINUOUS
 10
1.219256
 20
2.579965
  0
SEQEND
  8
0
  0
POLYLINE
  8
EBENE_1
  6
CONTINUOUS
 66
     1
 40
0.003000
 41
0.003000
  0
VERTEX
  8
EBENE_1
  6
CONTINUOUS
 10
1.219256
 20
2.579965
  0
VERTEX
  8
EBENE_1
  6
CONTINUOUS
 10
1.240299
 20
2.558921
  0
SEQEND
  8
0
  0
POLYLINE
  8
EBENE_1
  6
CONTINUOUS
 66
     1
 40
0.003000
 41
0.003000
  0
VERTEX
  8
EBENE_1
  6
CONTINUOUS
 10
1.129189
 20
2.564476
  0
VERTEX
  8
EBENE_1
  6
CONTINUOUS
 10
1.144677
 20
2.579965
  0
SEQEND
  8
0
  0
POLYLINE
  8
EBENE_1
  6
CONTINUOUS
 66
     1
 40
0.003000
 41
0.003000
  0
VERTEX
  8
EBENE_1
  6
CONTINUOUS
 10
1.713366
 20
2.519358
  0
VERTEX
  8
EBENE_1
  6
CONTINUOUS
 10
1.713366
 20
2.558921
  0
SEQEND
  8
0
  0
POLYLINE
  8
EBENE_1
  6
CONTINUOUS
 66
     1
 40
0.003000
 41
0.003000
  0
VERTEX
  8
EBENE_1
  6
CONTINUOUS
 10
1.654441
 20
2.558921
  0
VERTEX
  8
EBENE_1
  6
CONTINUOUS
 10
1.713366
 20
2.558921
  0
SEQEND
  8
0
  0
POLYLINE
  8
EBENE_1
  6
CONTINUOUS
 66
     1
 40
0.003000
 41
0.003000
  0
VERTEX
  8
EBENE_1
  6
CONTINUOUS
 10
1.654441
 20
2.411614
  0
VERTEX
  8
EBENE_1
  6
CONTINUOUS
 10
1.654441
 20
2.558921
  0
SEQEND
  8
0
  0
POLYLINE
  8
EBENE_1
  6
CONTINUOUS
 66
     1
 40
0.003000
 41
0.003000
  0
VERTEX
  8
EBENE_1
  6
CONTINUOUS
 10
1.464417
 20
2.557236
  0
VERTEX
  8
EBENE_1
  6
CONTINUOUS
 10
1.654441
 20
2.557236
  0
SEQEND
  8
0
  0
POLYLINE
  8
EBENE_1
  6
CONTINUOUS
 66
     1
 40
0.003000
 41
0.003000
  0
VERTEX
  8
EBENE_1
  6
CONTINUOUS
 10
1.449055
 20
2.548370
  0
VERTEX
  8
EBENE_1
  6
CONTINUOUS
 10
1.464417
 20
2.557236
  0
SEQEND
  8
0
  0
POLYLINE
  8
EBENE_1
  6
CONTINUOUS
 66
     1
 40
0.003000
 41
0.003000
  0
VERTEX
  8
EBENE_1
  6
CONTINUOUS
 10
1.713366
 20
2.264307
  0
VERTEX
  8
EBENE_1
  6
CONTINUOUS
 10
1.713366
 20
2.519358
  0
SEQEND
  8
0
  0
POLYLINE
  8
EBENE_1
  6
CONTINUOUS
 66
     1
 40
0.003000
 41
0.003000
  0
VERTEX
  8
EBENE_1
  6
CONTINUOUS
 10
1.654441
 20
2.264307
  0
VERTEX
  8
EBENE_1
  6
CONTINUOUS
 10
1.713366
 20
2.264307
  0
SEQEND
  8
0
  0
POLYLINE
  8
EBENE_1
  6
CONTINUOUS
 66
     1
 40
0.003000
 41
0.003000
  0
VERTEX
  8
EBENE_1
  6
CONTINUOUS
 10
1.654441
 20
2.411614
  0
VERTEX
  8
EBENE_1
  6
CONTINUOUS
 10
1.654441
 20
2.264307
  0
SEQEND
  8
0
  0
POLYLINE
  8
EBENE_1
  6
CONTINUOUS
 66
     1
 40
0.003000
 41
0.003000
  0
VERTEX
  8
EBENE_1
  6
CONTINUOUS
 10
1.464417
 20
2.265992
  0
VERTEX
  8
EBENE_1
  6
CONTINUOUS
 10
1.654441
 20
2.265992
  0
SEQEND
  8
0
  0
POLYLINE
  8
EBENE_1
  6
CONTINUOUS
 66
     1
 40
0.003000
 41
0.003000
  0
VERTEX
  8
EBENE_1
  6
CONTINUOUS
 10
1.449055
 20
2.274858
  0
VERTEX
  8
EBENE_1
  6
CONTINUOUS
 10
1.464417
 20
2.265992
  0
SEQEND
  8
0
  0
POLYLINE
  8
EBENE_1
  6
CONTINUOUS
 66
     1
 40
0.003000
 41
0.003000
  0
VERTEX
  8
EBENE_1
  6
CONTINUOUS
 10
1.297539
 20
2.184343
  0
VERTEX
  8
EBENE_1
  6
CONTINUOUS
 10
1.339626
 20
2.184343
  0
SEQEND
  8
0
  0
POLYLINE
  8
EBENE_1
  6
CONTINUOUS
 66
     1
 40
0.003000
 41
0.003000
  0
VERTEX
  8
EBENE_1
  6
CONTINUOUS
 10
1.297539
 20
2.184343
  0
VERTEX
  8
EBENE_1
  6
CONTINUOUS
 10
1.297539
 20
2.638886
  0
SEQEND
  8
0
  0
POLYLINE
  8
EBENE_1
  6
CONTINUOUS
 66
     1
 40
0.003000
 41
0.003000
  0
VERTEX
  8
EBENE_1
  6
CONTINUOUS
 10
1.339626
 20
2.209594
  0
VERTEX
  8
EBENE_1
  6
CONTINUOUS
 10
1.449055
 20
2.209594
  0
SEQEND
  8
0
  0
POLYLINE
  8
EBENE_1
  6
CONTINUOUS
 66
     1
 40
0.003000
 41
0.003000
  0
VERTEX
  8
EBENE_1
  6
CONTINUOUS
 10
1.339626
 20
2.184343
  0
VERTEX
  8
EBENE_1
  6
CONTINUOUS
 10
1.339626
 20
2.638886
  0
SEQEND
  8
0
  0
POLYLINE
  8
EBENE_1
  6
CONTINUOUS
 66
     1
 40
0.003000
 41
0.003000
  0
VERTEX
  8
EBENE_1
  6
CONTINUOUS
 10
1.240299
 20
2.264307
  0
VERTEX
  8
EBENE_1
  6
CONTINUOUS
 10
1.297539
 20
2.264307
  0
SEQEND
  8
0
  0
POLYLINE
  8
EBENE_1
  6
CONTINUOUS
 66
     1
 40
0.003000
 41
0.003000
  0
VERTEX
  8
EBENE_1
  6
CONTINUOUS
 10
1.144677
 20
2.243264
  0
VERTEX
  8
EBENE_1
  6
CONTINUOUS
 10
1.219256
 20
2.243264
  0
SEQEND
  8
0
  0
POLYLINE
  8
EBENE_1
  6
CONTINUOUS
 66
     1
 40
0.003000
 41
0.003000
  0
VERTEX
  8
EBENE_1
  6
CONTINUOUS
 10
1.129189
 20
2.258752
  0
VERTEX
  8
EBENE_1
  6
CONTINUOUS
 10
1.129189
 20
2.564476
  0
SEQEND
  8
0
  0
POLYLINE
  8
EBENE_1
  6
CONTINUOUS
 66
     1
 40
0.003000
 41
0.003000
  0
VERTEX
  8
EBENE_1
  6
CONTINUOUS
 10
1.219256
 20
2.243264
  0
VERTEX
  8
EBENE_1
  6
CONTINUOUS
 10
1.240299
 20
2.264307
  0
SEQEND
  8
0
  0
POLYLINE
  8
EBENE_1
  6
CONTINUOUS
 66
     1
 40
0.003000
 41
0.003000
  0
VERTEX
  8
EBENE_1
  6
CONTINUOUS
 10
1.129189
 20
2.258752
  0
VERTEX
  8
EBENE_1
  6
CONTINUOUS
 10
1.144677
 20
2.243264
  0
SEQEND
  8
0
  0
POLYLINE
  8
EBENE_1
  6
CONTINUOUS
 66
     1
 40
0.003000
 41
0.003000
  0
VERTEX
  8
EBENE_1
  6
CONTINUOUS
 10
1.449055
 20
2.274858
  0
VERTEX
  8
EBENE_1
  6
CONTINUOUS
 10
1.449055
 20
2.613634
  0
SEQEND
  8
0
  0
POLYLINE
  8
EBENE_1
  6
CONTINUOUS
 66
     1
 40
0.003000
 41
0.003000
  0
VERTEX
  8
EBENE_1
  6
CONTINUOUS
 10
1.449055
 20
2.209594
  0
VERTEX
  8
EBENE_1
  6
CONTINUOUS
 10
1.449055
 20
2.274858
  0
SEQEND
  8
0
  0
POLYLINE
  8
EBENE_1
  6
CONTINUOUS
 66
     1
 40
0.003000
 41
0.003000
  0
VERTEX
  8
EBENE_1
  6
CONTINUOUS
 10
1.144677
 20
2.243264
  0
VERTEX
  8
EBENE_1
  6
CONTINUOUS
 10
1.144677
 20
2.579965
  0
SEQEND
  8
0
  0
POLYLINE
  8
EBENE_1
  6
CONTINUOUS
 66
     1
 40
0.003000
 41
0.003000
  0
VERTEX
  8
EBENE_1
  6
CONTINUOUS
 10
1.219256
 20
2.579965
  0
VERTEX
  8
EBENE_1
  6
CONTINUOUS
 10
1.219256
 20
2.243264
  0
SEQEND
  8
0
  0
POLYLINE
  8
EBENE_1
  6
CONTINUOUS
 66
     1
 40
0.003000
 41
0.003000
  0
VERTEX
  8
EBENE_1
  6
CONTINUOUS
 10
1.240299
 20
2.264307
  0
VERTEX
  8
EBENE_1
  6
CONTINUOUS
 10
1.240299
 20
2.558921
  0
SEQEND
  8
0
  0
POLYLINE
  8
EBENE_1
  6
CONTINUOUS
 66
     1
 40
0.003000
 41
0.003000
  0
VERTEX
  8
EBENE_1
  6
CONTINUOUS
 10
1.339626
 20
2.411614
  0
VERTEX
  8
EBENE_1
  6
CONTINUOUS
 10
1.449055
 20
2.411614
  0
SEQEND
  8
0
  0
POLYLINE
  8
EBENE_1
  6
CONTINUOUS
 66
     1
 40
0.003000
 41
0.003000
  0
VERTEX
  8
EBENE_1
  6
CONTINUOUS
 10
1.464417
 20
2.557236
  0
VERTEX
  8
EBENE_1
  6
CONTINUOUS
 10
1.464417
 20
2.411614
  0
SEQEND
  8
0
  0
POLYLINE
  8
EBENE_1
  6
CONTINUOUS
 66
     1
 40
0.003000
 41
0.003000
  0
VERTEX
  8
EBENE_1
  6
CONTINUOUS
 10
1.464417
 20
2.411614
  0
VERTEX
  8
EBENE_1
  6
CONTINUOUS
 10
1.464417
 20
2.265992
  0
SEQEND
  8
0
  0
POLYLINE
  8
EBENE_1
  6
CONTINUOUS
 66
     1
 40
0.003000
 41
0.003000
  0
VERTEX
  8
EBENE_1
  6
CONTINUOUS
 10
2.710890
 20
2.638886
  0
VERTEX
  8
EBENE_1
  6
CONTINUOUS
 10
2.761394
 20
2.638886
  0
VERTEX
  8
EBENE_1
  6
CONTINUOUS
 10
2.761394
 20
2.244949
  0
SEQEND
  8
0
  0
POLYLINE
  8
EBENE_1
  6
CONTINUOUS
 66
     1
 40
0.003000
 41
0.003000
  0
VERTEX
  8
EBENE_1
  6
CONTINUOUS
 10
2.710890
 20
2.184343
  0
VERTEX
  8
EBENE_1
  6
CONTINUOUS
 10
2.761394
 20
2.184343
  0
VERTEX
  8
EBENE_1
  6
CONTINUOUS
 10
2.761394
 20
2.244949
  0
SEQEND
  8
0
  0
POLYLINE
  8
EBENE_1
  6
CONTINUOUS
 66
     1
 40
0.003000
 41
0.003000
  0
VERTEX
  8
EBENE_1
  6
CONTINUOUS
 10
2.847252
 20
2.596799
  0
VERTEX
  8
EBENE_1
  6
CONTINUOUS
 10
3.047591
 20
2.596799
  0
SEQEND
  8
0
  0
POLYLINE
  8
EBENE_1
  6
CONTINUOUS
 66
     1
 40
0.003000
 41
0.003000
  0
VERTEX
  8
EBENE_1
  6
CONTINUOUS
 10
3.064425
 20
2.575756
  0
VERTEX
  8
EBENE_1
  6
CONTINUOUS
 10
3.064425
 20
2.579965
  0
SEQEND
  8
0
  0
POLYLINE
  8
EBENE_1
  6
CONTINUOUS
 66
     1
 40
0.003000
 41
0.003000
  0
VERTEX
  8
EBENE_1
  6
CONTINUOUS
 10
3.064425
 20
2.575756
  0
VERTEX
  8
EBENE_1
  6
CONTINUOUS
 10
3.232776
 20
2.575756
  0
SEQEND
  8
0
  0
POLYLINE
  8
EBENE_1
  6
CONTINUOUS
 66
     1
 40
0.003000
 41
0.003000
  0
VERTEX
  8
EBENE_1
  6
CONTINUOUS
 10
2.847252
 20
2.226429
  0
VERTEX
  8
EBENE_1
  6
CONTINUOUS
 10
3.047591
 20
2.226429
  0
SEQEND
  8
0
  0
POLYLINE
  8
EBENE_1
  6
CONTINUOUS
 66
     1
 40
0.003000
 41
0.003000
  0
VERTEX
  8
EBENE_1
  6
CONTINUOUS
 10
3.064425
 20
2.243264
  0
VERTEX
  8
EBENE_1
  6
CONTINUOUS
 10
3.064425
 20
2.247472
  0
SEQEND
  8
0
  0
POLYLINE
  8
EBENE_1
  6
CONTINUOUS
 66
     1
 40
0.003000
 41
0.003000
  0
VERTEX
  8
EBENE_1
  6
CONTINUOUS
 10
3.047591
 20
2.596799
  0
VERTEX
  8
EBENE_1
  6
CONTINUOUS
 10
3.064425
 20
2.579965
  0
SEQEND
  8
0
  0
POLYLINE
  8
EBENE_1
  6
CONTINUOUS
 66
     1
 40
0.003000
 41
0.003000
  0
VERTEX
  8
EBENE_1
  6
CONTINUOUS
 10
2.828732
 20
2.578280
  0
VERTEX
  8
EBENE_1
  6
CONTINUOUS
 10
2.847252
 20
2.596799
  0
SEQEND
  8
0
  0
POLYLINE
  8
EBENE_1
  6
CONTINUOUS
 66
     1
 40
0.003000
 41
0.003000
  0
VERTEX
  8
EBENE_1
  6
CONTINUOUS
 10
3.249610
 20
2.558921
  0
VERTEX
  8
EBENE_1
  6
CONTINUOUS
 10
3.232776
 20
2.575756
  0
SEQEND
  8
0
  0
POLYLINE
  8
EBENE_1
  6
CONTINUOUS
 66
     1
 40
0.003000
 41
0.003000
  0
VERTEX
  8
EBENE_1
  6
CONTINUOUS
 10
3.047591
 20
2.226429
  0
VERTEX
  8
EBENE_1
  6
CONTINUOUS
 10
3.064425
 20
2.243264
  0
SEQEND
  8
0
  0
POLYLINE
  8
EBENE_1
  6
CONTINUOUS
 66
     1
 40
0.003000
 41
0.003000
  0
VERTEX
  8
EBENE_1
  6
CONTINUOUS
 10
2.761394
 20
2.244949
  0
VERTEX
  8
EBENE_1
  6
CONTINUOUS
 10
2.828732
 20
2.244949
  0
SEQEND
  8
0
  0
POLYLINE
  8
EBENE_1
  6
CONTINUOUS
 66
     1
 40
0.003000
 41
0.003000
  0
VERTEX
  8
EBENE_1
  6
CONTINUOUS
 10
2.828732
 20
2.244949
  0
VERTEX
  8
EBENE_1
  6
CONTINUOUS
 10
2.847252
 20
2.226429
  0
SEQEND
  8
0
  0
POLYLINE
  8
EBENE_1
  6
CONTINUOUS
 66
     1
 40
0.003000
 41
0.003000
  0
VERTEX
  8
EBENE_1
  6
CONTINUOUS
 10
3.249610
 20
2.264307
  0
VERTEX
  8
EBENE_1
  6
CONTINUOUS
 10
3.249610
 20
2.558921
  0
SEQEND
  8
0
  0
POLYLINE
  8
EBENE_1
  6
CONTINUOUS
 66
     1
 40
0.003000
 41
0.003000
  0
VERTEX
  8
EBENE_1
  6
CONTINUOUS
 10
2.609878
 20
2.411614
  0
VERTEX
  8
EBENE_1
  6
CONTINUOUS
 10
2.710890
 20
2.411614
  0
SEQEND
  8
0
  0
POLYLINE
  8
EBENE_1
  6
CONTINUOUS
 66
     1
 40
0.003000
 41
0.003000
  0
VERTEX
  8
EBENE_1
  6
CONTINUOUS
 10
2.609878
 20
2.411614
  0
VERTEX
  8
EBENE_1
  6
CONTINUOUS
 10
2.609878
 20
2.613634
  0
SEQEND
  8
0
  0
POLYLINE
  8
EBENE_1
  6
CONTINUOUS
 66
     1
 40
0.003000
 41
0.003000
  0
VERTEX
  8
EBENE_1
  6
CONTINUOUS
 10
2.609878
 20
2.209594
  0
VERTEX
  8
EBENE_1
  6
CONTINUOUS
 10
2.609878
 20
2.411614
  0
SEQEND
  8
0
  0
POLYLINE
  8
EBENE_1
  6
CONTINUOUS
 66
     1
 40
0.003000
 41
0.003000
  0
VERTEX
  8
EBENE_1
  6
CONTINUOUS
 10
2.609878
 20
2.613634
  0
VERTEX
  8
EBENE_1
  6
CONTINUOUS
 10
2.710890
 20
2.613634
  0
SEQEND
  8
0
  0
POLYLINE
  8
EBENE_1
  6
CONTINUOUS
 66
     1
 40
0.003000
 41
0.003000
  0
VERTEX
  8
EBENE_1
  6
CONTINUOUS
 10
2.609878
 20
2.209594
  0
VERTEX
  8
EBENE_1
  6
CONTINUOUS
 10
2.710890
 20
2.209594
  0
SEQEND
  8
0
  0
POLYLINE
  8
EBENE_1
  6
CONTINUOUS
 66
     1
 40
0.003000
 41
0.003000
  0
VERTEX
  8
EBENE_1
  6
CONTINUOUS
 10
2.710890
 20
2.184343
  0
VERTEX
  8
EBENE_1
  6
CONTINUOUS
 10
2.710890
 20
2.638886
  0
SEQEND
  8
0
  0
POLYLINE
  8
EBENE_1
  6
CONTINUOUS
 66
     1
 40
0.003000
 41
0.003000
  0
VERTEX
  8
EBENE_1
  6
CONTINUOUS
 10
3.064425
 20
2.247472
  0
VERTEX
  8
EBENE_1
  6
CONTINUOUS
 10
3.232776
 20
2.247472
  0
SEQEND
  8
0
  0
POLYLINE
  8
EBENE_1
  6
CONTINUOUS
 66
     1
 40
0.003000
 41
0.003000
  0
VERTEX
  8
EBENE_1
  6
CONTINUOUS
 10
3.232776
 20
2.247472
  0
VERTEX
  8
EBENE_1
  6
CONTINUOUS
 10
3.249610
 20
2.264307
  0
SEQEND
  8
0
  0
POLYLINE
  8
EBENE_1
  6
CONTINUOUS
 66
     1
 40
0.003000
 41
0.003000
  0
VERTEX
  8
EBENE_1
  6
CONTINUOUS
 10
2.761394
 20
2.578280
  0
VERTEX
  8
EBENE_1
  6
CONTINUOUS
 10
2.828732
 20
2.578280
  0
SEQEND
  8
0
  0
POLYLINE
  8
EBENE_1
  6
CONTINUOUS
 66
     1
 40
0.003000
 41
0.003000
  0
VERTEX
  8
EBENE_1
  6
CONTINUOUS
 10
2.828732
 20
2.578280
  0
VERTEX
  8
EBENE_1
  6
CONTINUOUS
 10
2.828732
 20
2.244949
  0
SEQEND
  8
0
  0
POLYLINE
  8
EBENE_1
  6
CONTINUOUS
 66
     1
 40
0.003000
 41
0.003000
  0
VERTEX
  8
EBENE_1
  6
CONTINUOUS
 10
2.847252
 20
2.226429
  0
VERTEX
  8
EBENE_1
  6
CONTINUOUS
 10
2.847252
 20
2.596799
  0
SEQEND
  8
0
  0
POLYLINE
  8
EBENE_1
  6
CONTINUOUS
 66
     1
 40
0.003000
 41
0.003000
  0
VERTEX
  8
EBENE_1
  6
CONTINUOUS
 10
3.047591
 20
2.596799
  0
VERTEX
  8
EBENE_1
  6
CONTINUOUS
 10
3.047591
 20
2.226429
  0
SEQEND
  8
0
  0
POLYLINE
  8
EBENE_1
  6
CONTINUOUS
 66
     1
 40
0.003000
 41
0.003000
  0
VERTEX
  8
EBENE_1
  6
CONTINUOUS
 10
3.064425
 20
2.247472
  0
VERTEX
  8
EBENE_1
  6
CONTINUOUS
 10
3.064425
 20
2.575756
  0
SEQEND
  8
0
  0
POLYLINE
  8
EBENE_1
  6
CONTINUOUS
 66
     1
 40
0.003000
 41
0.003000
  0
VERTEX
  8
EBENE_1
  6
CONTINUOUS
 10
3.232776
 20
2.575756
  0
VERTEX
  8
EBENE_1
  6
CONTINUOUS
 10
3.232776
 20
2.247472
  0
SEQEND
  8
0
  0
POLYLINE
  8
EBENE_1
  6
CONTINUOUS
 66
     1
 40
0.003000
 41
0.003000
  0
VERTEX
  8
EBENE_1
  6
CONTINUOUS
 10
1.499559
 20
1.174240
  0
VERTEX
  8
EBENE_1
  6
CONTINUOUS
 10
1.386764
 20
1.174240
  0
SEQEND
  8
0
  0
POLYLINE
  8
EBENE_1
  6
CONTINUOUS
 66
     1
 40
0.003000
 41
0.003000
  0
VERTEX
  8
EBENE_1
  6
CONTINUOUS
 10
1.331209
 20
1.207909
  0
VERTEX
  8
EBENE_1
  6
CONTINUOUS
 10
1.386764
 20
1.207909
  0
SEQEND
  8
0
  0
POLYLINE
  8
EBENE_1
  6
CONTINUOUS
 66
     1
 40
0.003000
 41
0.003000
  0
VERTEX
  8
EBENE_1
  6
CONTINUOUS
 10
1.275654
 20
1.103531
  0
VERTEX
  8
EBENE_1
  6
CONTINUOUS
 10
1.331209
 20
1.103531
  0
SEQEND
  8
0
  0
POLYLINE
  8
EBENE_1
  6
CONTINUOUS
 66
     1
 40
0.003000
 41
0.003000
  0
VERTEX
  8
EBENE_1
  6
CONTINUOUS
 10
1.129189
 20
1.106902
  0
VERTEX
  8
EBENE_1
  6
CONTINUOUS
 10
1.146024
 20
1.123736
  0
SEQEND
  8
0
  0
POLYLINE
  8
EBENE_1
  6
CONTINUOUS
 66
     1
 40
0.003000
 41
0.003000
  0
VERTEX
  8
EBENE_1
  6
CONTINUOUS
 10
1.255453
 20
1.123736
  0
VERTEX
  8
EBENE_1
  6
CONTINUOUS
 10
1.275654
 20
1.103531
  0
SEQEND
  8
0
  0
POLYLINE
  8
EBENE_1
  6
CONTINUOUS
 66
     1
 40
0.003000
 41
0.003000
  0
VERTEX
  8
EBENE_1
  6
CONTINUOUS
 10
1.146024
 20
1.123736
  0
VERTEX
  8
EBENE_1
  6
CONTINUOUS
 10
1.255453
 20
1.123736
  0
SEQEND
  8
0
  0
POLYLINE
  8
EBENE_1
  6
CONTINUOUS
 66
     1
 40
0.003000
 41
0.003000
  0
VERTEX
  8
EBENE_1
  6
CONTINUOUS
 10
1.741984
 20
1.119528
  0
VERTEX
  8
EBENE_1
  6
CONTINUOUS
 10
1.800906
 20
1.119528
  0
SEQEND
  8
0
  0
POLYLINE
  8
EBENE_1
  6
CONTINUOUS
 66
     1
 40
0.003000
 41
0.003000
  0
VERTEX
  8
EBENE_1
  6
CONTINUOUS
 10
1.741984
 20
0.938551
  0
VERTEX
  8
EBENE_1
  6
CONTINUOUS
 10
1.741984
 20
1.119528
  0
SEQEND
  8
0
  0
POLYLINE
  8
EBENE_1
  6
CONTINUOUS
 66
     1
 40
0.003000
 41
0.003000
  0
VERTEX
  8
EBENE_1
  6
CONTINUOUS
 10
1.521445
 20
1.117000
  0
VERTEX
  8
EBENE_1
  6
CONTINUOUS
 10
1.741984
 20
1.117000
  0
SEQEND
  8
0
  0
POLYLINE
  8
EBENE_1
  6
CONTINUOUS
 66
     1
 40
0.003000
 41
0.003000
  0
VERTEX
  8
EBENE_1
  6
CONTINUOUS
 10
1.499575
 20
1.104374
  0
VERTEX
  8
EBENE_1
  6
CONTINUOUS
 10
1.521445
 20
1.117000
  0
SEQEND
  8
0
  0
POLYLINE
  8
EBENE_1
  6
CONTINUOUS
 66
     1
 40
0.003000
 41
0.003000
  0
VERTEX
  8
EBENE_1
  6
CONTINUOUS
 10
1.499559
 20
0.702858
  0
VERTEX
  8
EBENE_1
  6
CONTINUOUS
 10
1.386764
 20
0.702858
  0
SEQEND
  8
0
  0
POLYLINE
  8
EBENE_1
  6
CONTINUOUS
 66
     1
 40
0.003000
 41
0.003000
  0
VERTEX
  8
EBENE_1
  6
CONTINUOUS
 10
1.331209
 20
0.669189
  0
VERTEX
  8
EBENE_1
  6
CONTINUOUS
 10
1.386764
 20
0.669189
  0
SEQEND
  8
0
  0
POLYLINE
  8
EBENE_1
  6
CONTINUOUS
 66
     1
 40
0.003000
 41
0.003000
  0
VERTEX
  8
EBENE_1
  6
CONTINUOUS
 10
1.386764
 20
0.669189
  0
VERTEX
  8
EBENE_1
  6
CONTINUOUS
 10
1.386764
 20
1.207909
  0
SEQEND
  8
0
  0
POLYLINE
  8
EBENE_1
  6
CONTINUOUS
 66
     1
 40
0.003000
 41
0.003000
  0
VERTEX
  8
EBENE_1
  6
CONTINUOUS
 10
1.331209
 20
0.669189
  0
VERTEX
  8
EBENE_1
  6
CONTINUOUS
 10
1.331209
 20
1.207909
  0
SEQEND
  8
0
  0
POLYLINE
  8
EBENE_1
  6
CONTINUOUS
 66
     1
 40
0.003000
 41
0.003000
  0
VERTEX
  8
EBENE_1
  6
CONTINUOUS
 10
1.275654
 20
0.773567
  0
VERTEX
  8
EBENE_1
  6
CONTINUOUS
 10
1.331209
 20
0.773567
  0
SEQEND
  8
0
  0
POLYLINE
  8
EBENE_1
  6
CONTINUOUS
 66
     1
 40
0.003000
 41
0.003000
  0
VERTEX
  8
EBENE_1
  6
CONTINUOUS
 10
1.129189
 20
0.770201
  0
VERTEX
  8
EBENE_1
  6
CONTINUOUS
 10
1.129189
 20
1.106902
  0
SEQEND
  8
0
  0
POLYLINE
  8
EBENE_1
  6
CONTINUOUS
 66
     1
 40
0.003000
 41
0.003000
  0
VERTEX
  8
EBENE_1
  6
CONTINUOUS
 10
1.129189
 20
0.770201
  0
VERTEX
  8
EBENE_1
  6
CONTINUOUS
 10
1.146024
 20
0.753366
  0
SEQEND
  8
0
  0
POLYLINE
  8
EBENE_1
  6
CONTINUOUS
 66
     1
 40
0.003000
 41
0.003000
  0
VERTEX
  8
EBENE_1
  6
CONTINUOUS
 10
1.255453
 20
0.753366
  0
VERTEX
  8
EBENE_1
  6
CONTINUOUS
 10
1.275654
 20
0.773567
  0
SEQEND
  8
0
  0
POLYLINE
  8
EBENE_1
  6
CONTINUOUS
 66
     1
 40
0.003000
 41
0.003000
  0
VERTEX
  8
EBENE_1
  6
CONTINUOUS
 10
1.146024
 20
0.753366
  0
VERTEX
  8
EBENE_1
  6
CONTINUOUS
 10
1.255453
 20
0.753366
  0
SEQEND
  8
0
  0
POLYLINE
  8
EBENE_1
  6
CONTINUOUS
 66
     1
 40
0.003000
 41
0.003000
  0
VERTEX
  8
EBENE_1
  6
CONTINUOUS
 10
1.800906
 20
0.757575
  0
VERTEX
  8
EBENE_1
  6
CONTINUOUS
 10
1.800906
 20
1.119528
  0
SEQEND
  8
0
  0
POLYLINE
  8
EBENE_1
  6
CONTINUOUS
 66
     1
 40
0.003000
 41
0.003000
  0
VERTEX
  8
EBENE_1
  6
CONTINUOUS
 10
1.741984
 20
0.757575
  0
VERTEX
  8
EBENE_1
  6
CONTINUOUS
 10
1.800906
 20
0.757575
  0
SEQEND
  8
0
  0
POLYLINE
  8
EBENE_1
  6
CONTINUOUS
 66
     1
 40
0.003000
 41
0.003000
  0
VERTEX
  8
EBENE_1
  6
CONTINUOUS
 10
1.741984
 20
0.938551
  0
VERTEX
  8
EBENE_1
  6
CONTINUOUS
 10
1.741984
 20
0.757575
  0
SEQEND
  8
0
  0
POLYLINE
  8
EBENE_1
  6
CONTINUOUS
 66
     1
 40
0.003000
 41
0.003000
  0
VERTEX
  8
EBENE_1
  6
CONTINUOUS
 10
1.521445
 20
0.760098
  0
VERTEX
  8
EBENE_1
  6
CONTINUOUS
 10
1.741984
 20
0.760098
  0
SEQEND
  8
0
  0
POLYLINE
  8
EBENE_1
  6
CONTINUOUS
 66
     1
 40
0.003000
 41
0.003000
  0
VERTEX
  8
EBENE_1
  6
CONTINUOUS
 10
1.499575
 20
0.772724
  0
VERTEX
  8
EBENE_1
  6
CONTINUOUS
 10
1.521445
 20
0.760098
  0
SEQEND
  8
0
  0
POLYLINE
  8
EBENE_1
  6
CONTINUOUS
 66
     1
 40
0.003000
 41
0.003000
  0
VERTEX
  8
EBENE_1
  6
CONTINUOUS
 10
1.499559
 20
0.702858
  0
VERTEX
  8
EBENE_1
  6
CONTINUOUS
 10
1.499559
 20
1.174240
  0
SEQEND
  8
0
  0
POLYLINE
  8
EBENE_1
  6
CONTINUOUS
 66
     1
 40
0.003000
 41
0.003000
  0
VERTEX
  8
EBENE_1
  6
CONTINUOUS
 10
1.275654
 20
0.773567
  0
VERTEX
  8
EBENE_1
  6
CONTINUOUS
 10
1.275654
 20
1.103531
  0
SEQEND
  8
0
  0
POLYLINE
  8
EBENE_1
  6
CONTINUOUS
 66
     1
 40
0.003000
 41
0.003000
  0
VERTEX
  8
EBENE_1
  6
CONTINUOUS
 10
1.255453
 20
1.123736
  0
VERTEX
  8
EBENE_1
  6
CONTINUOUS
 10
1.255453
 20
0.753366
  0
SEQEND
  8
0
  0
POLYLINE
  8
EBENE_1
  6
CONTINUOUS
 66
     1
 40
0.003000
 41
0.003000
  0
VERTEX
  8
EBENE_1
  6
CONTINUOUS
 10
1.146024
 20
0.753366
  0
VERTEX
  8
EBENE_1
  6
CONTINUOUS
 10
1.146024
 20
1.123736
  0
SEQEND
  8
0
  0
POLYLINE
  8
EBENE_1
  6
CONTINUOUS
 66
     1
 40
0.003000
 41
0.003000
  0
VERTEX
  8
EBENE_1
  6
CONTINUOUS
 10
1.499559
 20
0.938551
  0
VERTEX
  8
EBENE_1
  6
CONTINUOUS
 10
1.386764
 20
0.938551
  0
SEQEND
  8
0
  0
POLYLINE
  8
EBENE_1
  6
CONTINUOUS
 66
     1
 40
0.003000
 41
0.003000
  0
VERTEX
  8
EBENE_1
  6
CONTINUOUS
 10
1.521445
 20
1.117000
  0
VERTEX
  8
EBENE_1
  6
CONTINUOUS
 10
1.521445
 20
0.938551
  0
SEQEND
  8
0
  0
POLYLINE
  8
EBENE_1
  6
CONTINUOUS
 66
     1
 40
0.003000
 41
0.003000
  0
VERTEX
  8
EBENE_1
  6
CONTINUOUS
 10
1.521445
 20
0.938551
  0
VERTEX
  8
EBENE_1
  6
CONTINUOUS
 10
1.521445
 20
0.760098
  0
SEQEND
  8
0
  0
POLYLINE
  8
EBENE_1
  6
CONTINUOUS
 66
     1
 40
0.003000
 41
0.003000
  0
VERTEX
  8
EBENE_1
  6
CONTINUOUS
 10
3.081260
 20
1.140571
  0
VERTEX
  8
EBENE_1
  6
CONTINUOUS
 10
3.081260
 20
1.148988
  0
VERTEX
  8
EBENE_1
  6
CONTINUOUS
 10
3.064425
 20
1.165823
  0
SEQEND
  8
0
  0
POLYLINE
  8
EBENE_1
  6
CONTINUOUS
 66
     1
 40
0.003000
 41
0.003000
  0
VERTEX
  8
EBENE_1
  6
CONTINUOUS
 10
2.744559
 20
1.140571
  0
VERTEX
  8
EBENE_1
  6
CONTINUOUS
 10
2.801799
 20
1.140571
  0
SEQEND
  8
0
  0
POLYLINE
  8
EBENE_1
  6
CONTINUOUS
 66
     1
 40
0.003000
 41
0.003000
  0
VERTEX
  8
EBENE_1
  6
CONTINUOUS
 10
3.081260
 20
0.728114
  0
VERTEX
  8
EBENE_1
  6
CONTINUOUS
 10
3.081260
 20
0.736531
  0
SEQEND
  8
0
  0
POLYLINE
  8
EBENE_1
  6
CONTINUOUS
 66
     1
 40
0.003000
 41
0.003000
  0
VERTEX
  8
EBENE_1
  6
CONTINUOUS
 10
3.081260
 20
0.728114
  0
VERTEX
  8
EBENE_1
  6
CONTINUOUS
 10
3.064425
 20
0.711276
  0
SEQEND
  8
0
  0
POLYLINE
  8
EBENE_1
  6
CONTINUOUS
 66
     1
 40
0.003000
 41
0.003000
  0
VERTEX
  8
EBENE_1
  6
CONTINUOUS
 10
2.744559
 20
0.669189
  0
VERTEX
  8
EBENE_1
  6
CONTINUOUS
 10
2.744559
 20
1.207909
  0
SEQEND
  8
0
  0
POLYLINE
  8
EBENE_1
  6
CONTINUOUS
 66
     1
 40
0.003000
 41
0.003000
  0
VERTEX
  8
EBENE_1
  6
CONTINUOUS
 10
2.702472
 20
0.669189
  0
VERTEX
  8
EBENE_1
  6
CONTINUOUS
 10
2.744559
 20
0.669189
  0
SEQEND
  8
0
  0
POLYLINE
  8
EBENE_1
  6
CONTINUOUS
 66
     1
 40
0.003000
 41
0.003000
  0
VERTEX
  8
EBENE_1
  6
CONTINUOUS
 10
2.609878
 20
0.702858
  0
VERTEX
  8
EBENE_1
  6
CONTINUOUS
 10
2.609878
 20
1.174240
  0
SEQEND
  8
0
  0
POLYLINE
  8
EBENE_1
  6
CONTINUOUS
 66
     1
 40
0.003000
 41
0.003000
  0
VERTEX
  8
EBENE_1
  6
CONTINUOUS
 10
2.744559
 20
0.736531
  0
VERTEX
  8
EBENE_1
  6
CONTINUOUS
 10
2.801799
 20
0.736531
  0
SEQEND
  8
0
  0
POLYLINE
  8
EBENE_1
  6
CONTINUOUS
 66
     1
 40
0.003000
 41
0.003000
  0
VERTEX
  8
EBENE_1
  6
CONTINUOUS
 10
2.827051
 20
1.165823
  0
VERTEX
  8
EBENE_1
  6
CONTINUOUS
 10
3.064425
 20
1.165823
  0
SEQEND
  8
0
  0
POLYLINE
  8
EBENE_1
  6
CONTINUOUS
 66
     1
 40
0.003000
 41
0.003000
  0
VERTEX
  8
EBENE_1
  6
CONTINUOUS
 10
2.827051
 20
0.711276
  0
VERTEX
  8
EBENE_1
  6
CONTINUOUS
 10
3.064425
 20
0.711276
  0
SEQEND
  8
0
  0
POLYLINE
  8
EBENE_1
  6
CONTINUOUS
 66
     1
 40
0.003000
 41
0.003000
  0
VERTEX
  8
EBENE_1
  6
CONTINUOUS
 10
3.367453
 20
0.770201
  0
VERTEX
  8
EBENE_1
  6
CONTINUOUS
 10
3.367453
 20
1.106902
  0
SEQEND
  8
0
  0
POLYLINE
  8
EBENE_1
  6
CONTINUOUS
 66
     1
 40
0.003000
 41
0.003000
  0
VERTEX
  8
EBENE_1
  6
CONTINUOUS
 10
3.367453
 20
0.770201
  0
VERTEX
  8
EBENE_1
  6
CONTINUOUS
 10
3.333783
 20
0.736531
  0
SEQEND
  8
0
  0
POLYLINE
  8
EBENE_1
  6
CONTINUOUS
 66
     1
 40
0.003000
 41
0.003000
  0
VERTEX
  8
EBENE_1
  6
CONTINUOUS
 10
2.609878
 20
0.938551
  0
VERTEX
  8
EBENE_1
  6
CONTINUOUS
 10
2.702472
 20
0.938551
  0
SEQEND
  8
0
  0
POLYLINE
  8
EBENE_1
  6
CONTINUOUS
 66
     1
 40
0.003000
 41
0.003000
  0
VERTEX
  8
EBENE_1
  6
CONTINUOUS
 10
2.801799
 20
1.140571
  0
VERTEX
  8
EBENE_1
  6
CONTINUOUS
 10
2.827051
 20
1.165823
  0
SEQEND
  8
0
  0
POLYLINE
  8
EBENE_1
  6
CONTINUOUS
 66
     1
 40
0.003000
 41
0.003000
  0
VERTEX
  8
EBENE_1
  6
CONTINUOUS
 10
2.801799
 20
0.736531
  0
VERTEX
  8
EBENE_1
  6
CONTINUOUS
 10
2.827051
 20
0.711276
  0
SEQEND
  8
0
  0
POLYLINE
  8
EBENE_1
  6
CONTINUOUS
 66
     1
 40
0.003000
 41
0.003000
  0
VERTEX
  8
EBENE_1
  6
CONTINUOUS
 10
3.081260
 20
1.140571
  0
VERTEX
  8
EBENE_1
  6
CONTINUOUS
 10
3.333783
 20
1.140571
  0
SEQEND
  8
0
  0
POLYLINE
  8
EBENE_1
  6
CONTINUOUS
 66
     1
 40
0.003000
 41
0.003000
  0
VERTEX
  8
EBENE_1
  6
CONTINUOUS
 10
3.333783
 20
1.140571
  0
VERTEX
  8
EBENE_1
  6
CONTINUOUS
 10
3.367453
 20
1.106902
  0
SEQEND
  8
0
  0
POLYLINE
  8
EBENE_1
  6
CONTINUOUS
 66
     1
 40
0.003000
 41
0.003000
  0
VERTEX
  8
EBENE_1
  6
CONTINUOUS
 10
3.081260
 20
0.736531
  0
VERTEX
  8
EBENE_1
  6
CONTINUOUS
 10
3.333783
 20
0.736531
  0
SEQEND
  8
0
  0
POLYLINE
  8
EBENE_1
  6
CONTINUOUS
 66
     1
 40
0.003000
 41
0.003000
  0
VERTEX
  8
EBENE_1
  6
CONTINUOUS
 10
2.609878
 20
1.174240
  0
VERTEX
  8
EBENE_1
  6
CONTINUOUS
 10
2.702472
 20
1.174240
  0
SEQEND
  8
0
  0
POLYLINE
  8
EBENE_1
  6
CONTINUOUS
 66
     1
 40
0.003000
 41
0.003000
  0
VERTEX
  8
EBENE_1
  6
CONTINUOUS
 10
2.609878
 20
0.702858
  0
VERTEX
  8
EBENE_1
  6
CONTINUOUS
 10
2.702472
 20
0.702858
  0
SEQEND
  8
0
  0
POLYLINE
  8
EBENE_1
  6
CONTINUOUS
 66
     1
 40
0.003000
 41
0.003000
  0
VERTEX
  8
EBENE_1
  6
CONTINUOUS
 10
2.702472
 20
0.669189
  0
VERTEX
  8
EBENE_1
  6
CONTINUOUS
 10
2.702472
 20
1.207909
  0
SEQEND
  8
0
  0
POLYLINE
  8
EBENE_1
  6
CONTINUOUS
 66
     1
 40
0.003000
 41
0.003000
  0
VERTEX
  8
EBENE_1
  6
CONTINUOUS
 10
2.702472
 20
1.207909
  0
VERTEX
  8
EBENE_1
  6
CONTINUOUS
 10
2.744559
 20
1.207909
  0
SEQEND
  8
0
  0
POLYLINE
  8
EBENE_1
  6
CONTINUOUS
 66
     1
 40
0.003000
 41
0.003000
  0
VERTEX
  8
EBENE_1
  6
CONTINUOUS
 10
2.801799
 20
0.736531
  0
VERTEX
  8
EBENE_1
  6
CONTINUOUS
 10
2.801799
 20
1.140571
  0
SEQEND
  8
0
  0
POLYLINE
  8
EBENE_1
  6
CONTINUOUS
 66
     1
 40
0.003000
 41
0.003000
  0
VERTEX
  8
EBENE_1
  6
CONTINUOUS
 10
2.827051
 20
1.165823
  0
VERTEX
  8
EBENE_1
  6
CONTINUOUS
 10
2.827051
 20
0.711276
  0
SEQEND
  8
0
  0
POLYLINE
  8
EBENE_1
  6
CONTINUOUS
 66
     1
 40
0.003000
 41
0.003000
  0
VERTEX
  8
EBENE_1
  6
CONTINUOUS
 10
3.064425
 20
0.711276
  0
VERTEX
  8
EBENE_1
  6
CONTINUOUS
 10
3.064425
 20
1.165823
  0
SEQEND
  8
0
  0
POLYLINE
  8
EBENE_1
  6
CONTINUOUS
 66
     1
 40
0.003000
 41
0.003000
  0
VERTEX
  8
EBENE_1
  6
CONTINUOUS
 10
3.081260
 20
1.140571
  0
VERTEX
  8
EBENE_1
  6
CONTINUOUS
 10
3.081260
 20
0.736531
  0
SEQEND
  8
0
  0
POLYLINE
  8
EBENE_1
  6
CONTINUOUS
 66
     1
 40
0.003000
 41
0.003000
  0
VERTEX
  8
EBENE_1
  6
CONTINUOUS
 10
3.333783
 20
0.736531
  0
VERTEX
  8
EBENE_1
  6
CONTINUOUS
 10
3.333783
 20
1.140571
  0
SEQEND
  8
0
  0
POLYLINE
  8
EBENE_1
  6
CONTINUOUS
 66
     1
 40
0.003000
 41
0.003000
  0
VERTEX
  8
EBENE_1
  6
CONTINUOUS
 10
1.557563
 20
-0.844276
  0
VERTEX
  8
EBENE_1
  6
CONTINUOUS
 10
1.819425
 20
-0.844276
  0
SEQEND
  8
0
  0
POLYLINE
  8
EBENE_1
  6
CONTINUOUS
 66
     1
 40
0.003000
 41
0.003000
  0
VERTEX
  8
EBENE_1
  6
CONTINUOUS
 10
1.915386
 20
-0.847642
  0
VERTEX
  8
EBENE_1
  6
CONTINUOUS
 10
1.915386
 20
-0.389728
  0
SEQEND
  8
0
  0
POLYLINE
  8
EBENE_1
  6
CONTINUOUS
 66
     1
 40
0.003000
 41
0.003000
  0
VERTEX
  8
EBENE_1
  6
CONTINUOUS
 10
1.819425
 20
-0.847642
  0
VERTEX
  8
EBENE_1
  6
CONTINUOUS
 10
1.915386
 20
-0.847642
  0
SEQEND
  8
0
  0
POLYLINE
  8
EBENE_1
  6
CONTINUOUS
 66
     1
 40
0.003000
 41
0.003000
  0
VERTEX
  8
EBENE_1
  6
CONTINUOUS
 10
1.819425
 20
-0.618685
  0
VERTEX
  8
EBENE_1
  6
CONTINUOUS
 10
1.819425
 20
-0.847642
  0
SEQEND
  8
0
  0
POLYLINE
  8
EBENE_1
  6
CONTINUOUS
 66
     1
 40
0.003000
 41
0.003000
  0
VERTEX
  8
EBENE_1
  6
CONTINUOUS
 10
1.331209
 20
-0.273567
  0
VERTEX
  8
EBENE_1
  6
CONTINUOUS
 10
1.381717
 20
-0.273567
  0
SEQEND
  8
0
  0
POLYLINE
  8
EBENE_1
  6
CONTINUOUS
 66
     1
 40
0.003000
 41
0.003000
  0
VERTEX
  8
EBENE_1
  6
CONTINUOUS
 10
1.129189
 20
-0.618685
  0
VERTEX
  8
EBENE_1
  6
CONTINUOUS
 10
1.129189
 20
-0.416665
  0
SEQEND
  8
0
  0
POLYLINE
  8
EBENE_1
  6
CONTINUOUS
 66
     1
 40
0.003000
 41
0.003000
  0
VERTEX
  8
EBENE_1
  6
CONTINUOUS
 10
1.129189
 20
-0.416665
  0
VERTEX
  8
EBENE_1
  6
CONTINUOUS
 10
1.154441
 20
-0.391413
  0
SEQEND
  8
0
  0
POLYLINE
  8
EBENE_1
  6
CONTINUOUS
 66
     1
 40
0.003000
 41
0.003000
  0
VERTEX
  8
EBENE_1
  6
CONTINUOUS
 10
1.154441
 20
-0.391413
  0
VERTEX
  8
EBENE_1
  6
CONTINUOUS
 10
1.250402
 20
-0.391413
  0
SEQEND
  8
0
  0
POLYLINE
  8
EBENE_1
  6
CONTINUOUS
 66
     1
 40
0.003000
 41
0.003000
  0
VERTEX
  8
EBENE_1
  6
CONTINUOUS
 10
1.273972
 20
-0.414980
  0
VERTEX
  8
EBENE_1
  6
CONTINUOUS
 10
1.331209
 20
-0.414980
  0
SEQEND
  8
0
  0
POLYLINE
  8
EBENE_1
  6
CONTINUOUS
 66
     1
 40
0.003000
 41
0.003000
  0
VERTEX
  8
EBENE_1
  6
CONTINUOUS
 10
1.250402
 20
-0.391413
  0
VERTEX
  8
EBENE_1
  6
CONTINUOUS
 10
1.273972
 20
-0.414980
  0
SEQEND
  8
0
  0
POLYLINE
  8
EBENE_1
  6
CONTINUOUS
 66
     1
 40
0.003000
 41
0.003000
  0
VERTEX
  8
EBENE_1
  6
CONTINUOUS
 10
1.381717
 20
-0.315654
  0
VERTEX
  8
EBENE_1
  6
CONTINUOUS
 10
1.533232
 20
-0.315654
  0
SEQEND
  8
0
  0
POLYLINE
  8
EBENE_1
  6
CONTINUOUS
 66
     1
 40
0.003000
 41
0.003000
  0
VERTEX
  8
EBENE_1
  6
CONTINUOUS
 10
1.819425
 20
-0.389728
  0
VERTEX
  8
EBENE_1
  6
CONTINUOUS
 10
1.915386
 20
-0.389728
  0
SEQEND
  8
0
  0
POLYLINE
  8
EBENE_1
  6
CONTINUOUS
 66
     1
 40
0.003000
 41
0.003000
  0
VERTEX
  8
EBENE_1
  6
CONTINUOUS
 10
1.819425
 20
-0.618685
  0
VERTEX
  8
EBENE_1
  6
CONTINUOUS
 10
1.819425
 20
-0.389728
  0
SEQEND
  8
0
  0
POLYLINE
  8
EBENE_1
  6
CONTINUOUS
 66
     1
 40
0.003000
 41
0.003000
  0
VERTEX
  8
EBENE_1
  6
CONTINUOUS
 10
1.557563
 20
-0.393094
  0
VERTEX
  8
EBENE_1
  6
CONTINUOUS
 10
1.819425
 20
-0.393094
  0
SEQEND
  8
0
  0
POLYLINE
  8
EBENE_1
  6
CONTINUOUS
 66
     1
 40
0.003000
 41
0.003000
  0
VERTEX
  8
EBENE_1
  6
CONTINUOUS
 10
1.533232
 20
-0.407146
  0
VERTEX
  8
EBENE_1
  6
CONTINUOUS
 10
1.557563
 20
-0.393094
  0
SEQEND
  8
0
  0
POLYLINE
  8
EBENE_1
  6
CONTINUOUS
 66
     1
 40
0.003000
 41
0.003000
  0
VERTEX
  8
EBENE_1
  6
CONTINUOUS
 10
1.331209
 20
-0.963803
  0
VERTEX
  8
EBENE_1
  6
CONTINUOUS
 10
1.381717
 20
-0.963803
  0
SEQEND
  8
0
  0
POLYLINE
  8
EBENE_1
  6
CONTINUOUS
 66
     1
 40
0.003000
 41
0.003000
  0
VERTEX
  8
EBENE_1
  6
CONTINUOUS
 10
1.533232
 20
-0.921717
  0
VERTEX
  8
EBENE_1
  6
CONTINUOUS
 10
1.533232
 20
-0.315654
  0
SEQEND
  8
0
  0
POLYLINE
  8
EBENE_1
  6
CONTINUOUS
 66
     1
 40
0.003000
 41
0.003000
  0
VERTEX
  8
EBENE_1
  6
CONTINUOUS
 10
1.331209
 20
-0.963803
  0
VERTEX
  8
EBENE_1
  6
CONTINUOUS
 10
1.331209
 20
-0.273567
  0
SEQEND
  8
0
  0
POLYLINE
  8
EBENE_1
  6
CONTINUOUS
 66
     1
 40
0.003000
 41
0.003000
  0
VERTEX
  8
EBENE_1
  6
CONTINUOUS
 10
1.129189
 20
-0.618685
  0
VERTEX
  8
EBENE_1
  6
CONTINUOUS
 10
1.129189
 20
-0.820705
  0
SEQEND
  8
0
  0
POLYLINE
  8
EBENE_1
  6
CONTINUOUS
 66
     1
 40
0.003000
 41
0.003000
  0
VERTEX
  8
EBENE_1
  6
CONTINUOUS
 10
1.129189
 20
-0.820705
  0
VERTEX
  8
EBENE_1
  6
CONTINUOUS
 10
1.154441
 20
-0.845957
  0
SEQEND
  8
0
  0
POLYLINE
  8
EBENE_1
  6
CONTINUOUS
 66
     1
 40
0.003000
 41
0.003000
  0
VERTEX
  8
EBENE_1
  6
CONTINUOUS
 10
1.154441
 20
-0.845957
  0
VERTEX
  8
EBENE_1
  6
CONTINUOUS
 10
1.250402
 20
-0.845957
  0
SEQEND
  8
0
  0
POLYLINE
  8
EBENE_1
  6
CONTINUOUS
 66
     1
 40
0.003000
 41
0.003000
  0
VERTEX
  8
EBENE_1
  6
CONTINUOUS
 10
1.273972
 20
-0.822390
  0
VERTEX
  8
EBENE_1
  6
CONTINUOUS
 10
1.331209
 20
-0.822390
  0
SEQEND
  8
0
  0
POLYLINE
  8
EBENE_1
  6
CONTINUOUS
 66
     1
 40
0.003000
 41
0.003000
  0
VERTEX
  8
EBENE_1
  6
CONTINUOUS
 10
1.250402
 20
-0.845957
  0
VERTEX
  8
EBENE_1
  6
CONTINUOUS
 10
1.273972
 20
-0.822390
  0
SEQEND
  8
0
  0
POLYLINE
  8
EBENE_1
  6
CONTINUOUS
 66
     1
 40
0.003000
 41
0.003000
  0
VERTEX
  8
EBENE_1
  6
CONTINUOUS
 10
1.381717
 20
-0.921717
  0
VERTEX
  8
EBENE_1
  6
CONTINUOUS
 10
1.533232
 20
-0.921717
  0
SEQEND
  8
0
  0
POLYLINE
  8
EBENE_1
  6
CONTINUOUS
 66
     1
 40
0.003000
 41
0.003000
  0
VERTEX
  8
EBENE_1
  6
CONTINUOUS
 10
1.381717
 20
-0.963803
  0
VERTEX
  8
EBENE_1
  6
CONTINUOUS
 10
1.381717
 20
-0.273567
  0
SEQEND
  8
0
  0
POLYLINE
  8
EBENE_1
  6
CONTINUOUS
 66
     1
 40
0.003000
 41
0.003000
  0
VERTEX
  8
EBENE_1
  6
CONTINUOUS
 10
1.533232
 20
-0.830224
  0
VERTEX
  8
EBENE_1
  6
CONTINUOUS
 10
1.557563
 20
-0.844276
  0
SEQEND
  8
0
  0
POLYLINE
  8
EBENE_1
  6
CONTINUOUS
 66
     1
 40
0.003000
 41
0.003000
  0
VERTEX
  8
EBENE_1
  6
CONTINUOUS
 10
1.154441
 20
-0.845957
  0
VERTEX
  8
EBENE_1
  6
CONTINUOUS
 10
1.154441
 20
-0.391413
  0
SEQEND
  8
0
  0
POLYLINE
  8
EBENE_1
  6
CONTINUOUS
 66
     1
 40
0.003000
 41
0.003000
  0
VERTEX
  8
EBENE_1
  6
CONTINUOUS
 10
1.250402
 20
-0.391413
  0
VERTEX
  8
EBENE_1
  6
CONTINUOUS
 10
1.250402
 20
-0.845957
  0
SEQEND
  8
0
  0
POLYLINE
  8
EBENE_1
  6
CONTINUOUS
 66
     1
 40
0.003000
 41
0.003000
  0
VERTEX
  8
EBENE_1
  6
CONTINUOUS
 10
1.273972
 20
-0.822390
  0
VERTEX
  8
EBENE_1
  6
CONTINUOUS
 10
1.273972
 20
-0.414980
  0
SEQEND
  8
0
  0
POLYLINE
  8
EBENE_1
  6
CONTINUOUS
 66
     1
 40
0.003000
 41
0.003000
  0
VERTEX
  8
EBENE_1
  6
CONTINUOUS
 10
1.533232
 20
-0.618685
  0
VERTEX
  8
EBENE_1
  6
CONTINUOUS
 10
1.381717
 20
-0.618685
  0
SEQEND
  8
0
  0
POLYLINE
  8
EBENE_1
  6
CONTINUOUS
 66
     1
 40
0.003000
 41
0.003000
  0
VERTEX
  8
EBENE_1
  6
CONTINUOUS
 10
1.557563
 20
-0.393094
  0
VERTEX
  8
EBENE_1
  6
CONTINUOUS
 10
1.557563
 20
-0.618685
  0
SEQEND
  8
0
  0
POLYLINE
  8
EBENE_1
  6
CONTINUOUS
 66
     1
 40
0.003000
 41
0.003000
  0
VERTEX
  8
EBENE_1
  6
CONTINUOUS
 10
1.557563
 20
-0.618685
  0
VERTEX
  8
EBENE_1
  6
CONTINUOUS
 10
1.557563
 20
-0.844276
  0
SEQEND
  8
0
  0
POLYLINE
  8
EBENE_1
  6
CONTINUOUS
 66
     1
 40
0.003000
 41
0.003000
  0
VERTEX
  8
EBENE_1
  6
CONTINUOUS
 10
2.609878
 20
-0.618685
  0
VERTEX
  8
EBENE_1
  6
CONTINUOUS
 10
2.710890
 20
-0.618685
  0
SEQEND
  8
0
  0
POLYLINE
  8
EBENE_1
  6
CONTINUOUS
 66
     1
 40
0.003000
 41
0.003000
  0
VERTEX
  8
EBENE_1
  6
CONTINUOUS
 10
3.114929
 20
-0.315654
  0
VERTEX
  8
EBENE_1
  6
CONTINUOUS
 10
2.811898
 20
-0.315654
  0
SEQEND
  8
0
  0
POLYLINE
  8
EBENE_1
  6
CONTINUOUS
 66
     1
 40
0.003000
 41
0.003000
  0
VERTEX
  8
EBENE_1
  6
CONTINUOUS
 10
2.609878
 20
-0.214646
  0
VERTEX
  8
EBENE_1
  6
CONTINUOUS
 10
2.710890
 20
-0.214646
  0
SEQEND
  8
0
  0
POLYLINE
  8
EBENE_1
  6
CONTINUOUS
 66
     1
 40
0.003000
 41
0.003000
  0
VERTEX
  8
EBENE_1
  6
CONTINUOUS
 10
2.710890
 20
-0.340906
  0
VERTEX
  8
EBENE_1
  6
CONTINUOUS
 10
2.710890
 20
-0.281984
  0
SEQEND
  8
0
  0
POLYLINE
  8
EBENE_1
  6
CONTINUOUS
 66
     1
 40
0.003000
 41
0.003000
  0
VERTEX
  8
EBENE_1
  6
CONTINUOUS
 10
2.710890
 20
-0.340906
  0
VERTEX
  8
EBENE_1
  6
CONTINUOUS
 10
2.786646
 20
-0.340906
  0
SEQEND
  8
0
  0
POLYLINE
  8
EBENE_1
  6
CONTINUOUS
 66
     1
 40
0.003000
 41
0.003000
  0
VERTEX
  8
EBENE_1
  6
CONTINUOUS
 10
2.786646
 20
-0.340906
  0
VERTEX
  8
EBENE_1
  6
CONTINUOUS
 10
2.811898
 20
-0.315654
  0
SEQEND
  8
0
  0
POLYLINE
  8
EBENE_1
  6
CONTINUOUS
 66
     1
 40
0.003000
 41
0.003000
  0
VERTEX
  8
EBENE_1
  6
CONTINUOUS
 10
3.131764
 20
-0.349323
  0
VERTEX
  8
EBENE_1
  6
CONTINUOUS
 10
3.131764
 20
-0.332488
  0
SEQEND
  8
0
  0
POLYLINE
  8
EBENE_1
  6
CONTINUOUS
 66
     1
 40
0.003000
 41
0.003000
  0
VERTEX
  8
EBENE_1
  6
CONTINUOUS
 10
3.131764
 20
-0.332488
  0
VERTEX
  8
EBENE_1
  6
CONTINUOUS
 10
3.114929
 20
-0.315654
  0
SEQEND
  8
0
  0
POLYLINE
  8
EBENE_1
  6
CONTINUOUS
 66
     1
 40
0.003000
 41
0.003000
  0
VERTEX
  8
EBENE_1
  6
CONTINUOUS
 10
3.131764
 20
-0.349323
  0
VERTEX
  8
EBENE_1
  6
CONTINUOUS
 10
3.586311
 20
-0.349323
  0
SEQEND
  8
0
  0
POLYLINE
  8
EBENE_1
  6
CONTINUOUS
 66
     1
 40
0.003000
 41
0.003000
  0
VERTEX
  8
EBENE_1
  6
CONTINUOUS
 10
3.586311
 20
-0.349323
  0
VERTEX
  8
EBENE_1
  6
CONTINUOUS
 10
3.619980
 20
-0.382996
  0
SEQEND
  8
0
  0
POLYLINE
  8
EBENE_1
  6
CONTINUOUS
 66
     1
 40
0.003000
 41
0.003000
  0
VERTEX
  8
EBENE_1
  6
CONTINUOUS
 10
2.609878
 20
-1.022724
  0
VERTEX
  8
EBENE_1
  6
CONTINUOUS
 10
2.609878
 20
-0.214646
  0
SEQEND
  8
0
  0
POLYLINE
  8
EBENE_1
  6
CONTINUOUS
 66
     1
 40
0.003000
 41
0.003000
  0
VERTEX
  8
EBENE_1
  6
CONTINUOUS
 10
3.114929
 20
-0.921717
  0
VERTEX
  8
EBENE_1
  6
CONTINUOUS
 10
2.811898
 20
-0.921717
  0
SEQEND
  8
0
  0
POLYLINE
  8
EBENE_1
  6
CONTINUOUS
 66
     1
 40
0.003000
 41
0.003000
  0
VERTEX
  8
EBENE_1
  6
CONTINUOUS
 10
3.619980
 20
-0.854374
  0
VERTEX
  8
EBENE_1
  6
CONTINUOUS
 10
3.619980
 20
-0.382996
  0
SEQEND
  8
0
  0
POLYLINE
  8
EBENE_1
  6
CONTINUOUS
 66
     1
 40
0.003000
 41
0.003000
  0
VERTEX
  8
EBENE_1
  6
CONTINUOUS
 10
2.609878
 20
-1.022724
  0
VERTEX
  8
EBENE_1
  6
CONTINUOUS
 10
2.710890
 20
-1.022724
  0
SEQEND
  8
0
  0
POLYLINE
  8
EBENE_1
  6
CONTINUOUS
 66
     1
 40
0.003000
 41
0.003000
  0
VERTEX
  8
EBENE_1
  6
CONTINUOUS
 10
2.710890
 20
-0.955386
  0
VERTEX
  8
EBENE_1
  6
CONTINUOUS
 10
2.710890
 20
-0.214646
  0
SEQEND
  8
0
  0
POLYLINE
  8
EBENE_1
  6
CONTINUOUS
 66
     1
 40
0.003000
 41
0.003000
  0
VERTEX
  8
EBENE_1
  6
CONTINUOUS
 10
2.710890
 20
-0.955386
  0
VERTEX
  8
EBENE_1
  6
CONTINUOUS
 10
2.710890
 20
-1.022724
  0
SEQEND
  8
0
  0
POLYLINE
  8
EBENE_1
  6
CONTINUOUS
 66
     1
 40
0.003000
 41
0.003000
  0
VERTEX
  8
EBENE_1
  6
CONTINUOUS
 10
2.710890
 20
-0.896465
  0
VERTEX
  8
EBENE_1
  6
CONTINUOUS
 10
2.786646
 20
-0.896465
  0
SEQEND
  8
0
  0
POLYLINE
  8
EBENE_1
  6
CONTINUOUS
 66
     1
 40
0.003000
 41
0.003000
  0
VERTEX
  8
EBENE_1
  6
CONTINUOUS
 10
2.786646
 20
-0.896465
  0
VERTEX
  8
EBENE_1
  6
CONTINUOUS
 10
2.811898
 20
-0.921717
  0
SEQEND
  8
0
  0
POLYLINE
  8
EBENE_1
  6
CONTINUOUS
 66
     1
 40
0.003000
 41
0.003000
  0
VERTEX
  8
EBENE_1
  6
CONTINUOUS
 10
3.131764
 20
-0.888043
  0
VERTEX
  8
EBENE_1
  6
CONTINUOUS
 10
3.131764
 20
-0.904882
  0
SEQEND
  8
0
  0
POLYLINE
  8
EBENE_1
  6
CONTINUOUS
 66
     1
 40
0.003000
 41
0.003000
  0
VERTEX
  8
EBENE_1
  6
CONTINUOUS
 10
3.131764
 20
-0.904882
  0
VERTEX
  8
EBENE_1
  6
CONTINUOUS
 10
3.114929
 20
-0.921717
  0
SEQEND
  8
0
  0
POLYLINE
  8
EBENE_1
  6
CONTINUOUS
 66
     1
 40
0.003000
 41
0.003000
  0
VERTEX
  8
EBENE_1
  6
CONTINUOUS
 10
3.131764
 20
-0.888043
  0
VERTEX
  8
EBENE_1
  6
CONTINUOUS
 10
3.586311
 20
-0.888043
  0
SEQEND
  8
0
  0
POLYLINE
  8
EBENE_1
  6
CONTINUOUS
 66
     1
 40
0.003000
 41
0.003000
  0
VERTEX
  8
EBENE_1
  6
CONTINUOUS
 10
3.586311
 20
-0.888043
  0
VERTEX
  8
EBENE_1
  6
CONTINUOUS
 10
3.619980
 20
-0.854374
  0
SEQEND
  8
0
  0
POLYLINE
  8
EBENE_1
  6
CONTINUOUS
 66
     1
 40
0.003000
 41
0.003000
  0
VERTEX
  8
EBENE_1
  6
CONTINUOUS
 10
2.786646
 20
-0.896465
  0
VERTEX
  8
EBENE_1
  6
CONTINUOUS
 10
2.786646
 20
-0.340906
  0
SEQEND
  8
0
  0
POLYLINE
  8
EBENE_1
  6
CONTINUOUS
 66
     1
 40
0.003000
 41
0.003000
  0
VERTEX
  8
EBENE_1
  6
CONTINUOUS
 10
2.811898
 20
-0.921717
  0
VERTEX
  8
EBENE_1
  6
CONTINUOUS
 10
2.811898
 20
-0.315654
  0
SEQEND
  8
0
  0
POLYLINE
  8
EBENE_1
  6
CONTINUOUS
 66
     1
 40
0.003000
 41
0.003000
  0
VERTEX
  8
EBENE_1
  6
CONTINUOUS
 10
3.114929
 20
-0.921717
  0
VERTEX
  8
EBENE_1
  6
CONTINUOUS
 10
3.114929
 20
-0.315654
  0
SEQEND
  8
0
  0
POLYLINE
  8
EBENE_1
  6
CONTINUOUS
 66
     1
 40
0.003000
 41
0.003000
  0
VERTEX
  8
EBENE_1
  6
CONTINUOUS
 10
3.131764
 20
-0.888043
  0
VERTEX
  8
EBENE_1
  6
CONTINUOUS
 10
3.131764
 20
-0.349323
  0
SEQEND
  8
0
  0
POLYLINE
  8
EBENE_1
  6
CONTINUOUS
 66
     1
 40
0.003000
 41
0.003000
  0
VERTEX
  8
EBENE_1
  6
CONTINUOUS
 10
3.586311
 20
-0.888043
  0
VERTEX
  8
EBENE_1
  6
CONTINUOUS
 10
3.586311
 20
-0.349323
  0
SEQEND
  8
0
  0
POLYLINE
  8
EBENE_1
  6
CONTINUOUS
 66
     1
 40
0.003000
 41
0.003000
  0
VERTEX
  8
EBENE_1
  6
CONTINUOUS
 10
-3.225445
 20
-1.996295
  0
VERTEX
  8
EBENE_1
  6
CONTINUOUS
 10
-3.222811
 20
-1.995823
  0
VERTEX
  8
EBENE_1
  6
CONTINUOUS
 10
-3.220240
 20
-1.994421
  0
VERTEX
  8
EBENE_1
  6
CONTINUOUS
 10
-3.217799
 20
-1.992126
  0
VERTEX
  8
EBENE_1
  6
CONTINUOUS
 10
-3.215547
 20
-1.988992
  0
VERTEX
  8
EBENE_1
  6
CONTINUOUS
 10
-3.213539
 20
-1.985094
  0
VERTEX
  8
EBENE_1
  6
CONTINUOUS
 10
-3.211823
 20
-1.980531
  0
VERTEX
  8
EBENE_1
  6
CONTINUOUS
 10
-3.210445
 20
-1.975417
  0
VERTEX
  8
EBENE_1
  6
CONTINUOUS
 10
-3.209433
 20
-1.969874
  0
VERTEX
  8
EBENE_1
  6
CONTINUOUS
 10
-3.208815
 20
-1.964039
  0
VERTEX
  8
EBENE_1
  6
CONTINUOUS
 10
-3.208610
 20
-1.958059
  0
VERTEX
  8
EBENE_1
  6
CONTINUOUS
 10
-3.208815
 20
-1.952075
  0
VERTEX
  8
EBENE_1
  6
CONTINUOUS
 10
-3.209433
 20
-1.946240
  0
VERTEX
  8
EBENE_1
  6
CONTINUOUS
 10
-3.210445
 20
-1.940697
  0
VERTEX
  8
EBENE_1
  6
CONTINUOUS
 10
-3.211823
 20
-1.935583
  0
VERTEX
  8
EBENE_1
  6
CONTINUOUS
 10
-3.213539
 20
-1.931020
  0
VERTEX
  8
EBENE_1
  6
CONTINUOUS
 10
-3.215547
 20
-1.927122
  0
VERTEX
  8
EBENE_1
  6
CONTINUOUS
 10
-3.217799
 20
-1.923988
  0
VERTEX
  8
EBENE_1
  6
CONTINUOUS
 10
-3.220240
 20
-1.921693
  0
VERTEX
  8
EBENE_1
  6
CONTINUOUS
 10
-3.222811
 20
-1.920291
  0
VERTEX
  8
EBENE_1
  6
CONTINUOUS
 10
-3.225445
 20
-1.919819
  0
SEQEND
  8
0
  0
POLYLINE
  8
EBENE_1
  6
CONTINUOUS
 66
     1
 40
0.003000
 41
0.003000
  0
VERTEX
  8
EBENE_1
  6
CONTINUOUS
 10
-3.225445
 20
-2.161528
  0
VERTEX
  8
EBENE_1
  6
CONTINUOUS
 10
-3.222811
 20
-2.160512
  0
VERTEX
  8
EBENE_1
  6
CONTINUOUS
 10
-3.220240
 20
-2.157484
  0
VERTEX
  8
EBENE_1
  6
CONTINUOUS
 10
-3.217799
 20
-2.152524
  0
VERTEX
  8
EBENE_1
  6
CONTINUOUS
 10
-3.215547
 20
-2.145752
  0
VERTEX
  8
EBENE_1
  6
CONTINUOUS
 10
-3.213539
 20
-2.137331
  0
VERTEX
  8
EBENE_1
  6
CONTINUOUS
 10
-3.211823
 20
-2.127472
  0
VERTEX
  8
EBENE_1
  6
CONTINUOUS
 10
-3.210445
 20
-2.116417
  0
VERTEX
  8
EBENE_1
  6
CONTINUOUS
 10
-3.209433
 20
-2.104441
  0
VERTEX
  8
EBENE_1
  6
CONTINUOUS
 10
-3.208815
 20
-2.091835
  0
VERTEX
  8
EBENE_1
  6
CONTINUOUS
 10
-3.208610
 20
-2.078913
  0
VERTEX
  8
EBENE_1
  6
CONTINUOUS
 10
-3.208815
 20
-2.065988
  0
VERTEX
  8
EBENE_1
  6
CONTINUOUS
 10
-3.209433
 20
-2.053382
  0
VERTEX
  8
EBENE_1
  6
CONTINUOUS
 10
-3.210445
 20
-2.041406
  0
VERTEX
  8
EBENE_1
  6
CONTINUOUS
 10
-3.211823
 20
-2.030350
  0
VERTEX
  8
EBENE_1
  6
CONTINUOUS
 10
-3.213539
 20
-2.020492
  0
VERTEX
  8
EBENE_1
  6
CONTINUOUS
 10
-3.215547
 20
-2.012071
  0
VERTEX
  8
EBENE_1
  6
CONTINUOUS
 10
-3.217799
 20
-2.005299
  0
VERTEX
  8
EBENE_1
  6
CONTINUOUS
 10
-3.220240
 20
-2.000339
  0
VERTEX
  8
EBENE_1
  6
CONTINUOUS
 10
-3.222811
 20
-1.997311
  0
VERTEX
  8
EBENE_1
  6
CONTINUOUS
 10
-3.225445
 20
-1.996295
  0
SEQEND
  8
0
  0
POLYLINE
  8
EBENE_1
  6
CONTINUOUS
 66
     1
 40
0.003000
 41
0.003000
  0
VERTEX
  8
EBENE_1
  6
CONTINUOUS
 10
-3.225445
 20
-2.238004
  0
VERTEX
  8
EBENE_1
  6
CONTINUOUS
 10
-3.222811
 20
-2.237531
  0
VERTEX
  8
EBENE_1
  6
CONTINUOUS
 10
-3.220240
 20
-2.236130
  0
VERTEX
  8
EBENE_1
  6
CONTINUOUS
 10
-3.217799
 20
-2.233835
  0
VERTEX
  8
EBENE_1
  6
CONTINUOUS
 10
-3.215547
 20
-2.230701
  0
VERTEX
  8
EBENE_1
  6
CONTINUOUS
 10
-3.213539
 20
-2.226803
  0
VERTEX
  8
EBENE_1
  6
CONTINUOUS
 10
-3.211823
 20
-2.222240
  0
VERTEX
  8
EBENE_1
  6
CONTINUOUS
 10
-3.210445
 20
-2.217126
  0
VERTEX
  8
EBENE_1
  6
CONTINUOUS
 10
-3.209433
 20
-2.211583
  0
VERTEX
  8
EBENE_1
  6
CONTINUOUS
 10
-3.208815
 20
-2.205748
  0
VERTEX
  8
EBENE_1
  6
CONTINUOUS
 10
-3.208610
 20
-2.199764
  0
VERTEX
  8
EBENE_1
  6
CONTINUOUS
 10
-3.208815
 20
-2.193783
  0
VERTEX
  8
EBENE_1
  6
CONTINUOUS
 10
-3.209433
 20
-2.187949
  0
VERTEX
  8
EBENE_1
  6
CONTINUOUS
 10
-3.210445
 20
-2.182406
  0
VERTEX
  8
EBENE_1
  6
CONTINUOUS
 10
-3.211823
 20
-2.177291
  0
VERTEX
  8
EBENE_1
  6
CONTINUOUS
 10
-3.213539
 20
-2.172728
  0
VERTEX
  8
EBENE_1
  6
CONTINUOUS
 10
-3.215547
 20
-2.168831
  0
VERTEX
  8
EBENE_1
  6
CONTINUOUS
 10
-3.217799
 20
-2.165697
  0
VERTEX
  8
EBENE_1
  6
CONTINUOUS
 10
-3.220240
 20
-2.163402
  0
VERTEX
  8
EBENE_1
  6
CONTINUOUS
 10
-3.222811
 20
-2.162000
  0
VERTEX
  8
EBENE_1
  6
CONTINUOUS
 10
-3.225445
 20
-2.161528
  0
SEQEND
  8
0
  0
POLYLINE
  8
EBENE_1
  6
CONTINUOUS
 66
     1
 40
0.003000
 41
0.003000
  0
VERTEX
  8
EBENE_1
  6
CONTINUOUS
 10
-3.225445
 20
-1.919819
  0
VERTEX
  8
EBENE_1
  6
CONTINUOUS
 10
-3.360122
 20
-1.919819
  0
SEQEND
  8
0
  0
POLYLINE
  8
EBENE_1
  6
CONTINUOUS
 66
     1
 40
0.003000
 41
0.003000
  0
VERTEX
  8
EBENE_1
  6
CONTINUOUS
 10
-3.405579
 20
-1.998102
  0
VERTEX
  8
EBENE_1
  6
CONTINUOUS
 10
-3.360122
 20
-1.998102
  0
SEQEND
  8
0
  0
POLYLINE
  8
EBENE_1
  6
CONTINUOUS
 66
     1
 40
0.003000
 41
0.003000
  0
VERTEX
  8
EBENE_1
  6
CONTINUOUS
 10
-3.494803
 20
-2.078913
  0
VERTEX
  8
EBENE_1
  6
CONTINUOUS
 10
-3.494803
 20
-1.994736
  0
SEQEND
  8
0
  0
POLYLINE
  8
EBENE_1
  6
CONTINUOUS
 66
     1
 40
0.003000
 41
0.003000
  0
VERTEX
  8
EBENE_1
  6
CONTINUOUS
 10
-3.494803
 20
-1.994736
  0
VERTEX
  8
EBENE_1
  6
CONTINUOUS
 10
-3.477969
 20
-1.977902
  0
SEQEND
  8
0
  0
POLYLINE
  8
EBENE_1
  6
CONTINUOUS
 66
     1
 40
0.003000
 41
0.003000
  0
VERTEX
  8
EBENE_1
  6
CONTINUOUS
 10
-3.477969
 20
-1.977902
  0
VERTEX
  8
EBENE_1
  6
CONTINUOUS
 10
-3.425780
 20
-1.977902
  0
SEQEND
  8
0
  0
POLYLINE
  8
EBENE_1
  6
CONTINUOUS
 66
     1
 40
0.003000
 41
0.003000
  0
VERTEX
  8
EBENE_1
  6
CONTINUOUS
 10
-3.425780
 20
-1.977902
  0
VERTEX
  8
EBENE_1
  6
CONTINUOUS
 10
-3.405579
 20
-1.998102
  0
SEQEND
  8
0
  0
POLYLINE
  8
EBENE_1
  6
CONTINUOUS
 66
     1
 40
0.003000
 41
0.003000
  0
VERTEX
  8
EBENE_1
  6
CONTINUOUS
 10
-3.208610
 20
-2.007362
  0
VERTEX
  8
EBENE_1
  6
CONTINUOUS
 10
-3.112650
 20
-2.007362
  0
SEQEND
  8
0
  0
POLYLINE
  8
EBENE_1
  6
CONTINUOUS
 66
     1
 40
0.003000
 41
0.003000
  0
VERTEX
  8
EBENE_1
  6
CONTINUOUS
 10
-3.112650
 20
-2.003996
  0
VERTEX
  8
EBENE_1
  6
CONTINUOUS
 10
-3.053728
 20
-2.003996
  0
SEQEND
  8
0
  0
POLYLINE
  8
EBENE_1
  6
CONTINUOUS
 66
     1
 40
0.003000
 41
0.003000
  0
VERTEX
  8
EBENE_1
  6
CONTINUOUS
 10
-3.112650
 20
-2.007362
  0
VERTEX
  8
EBENE_1
  6
CONTINUOUS
 10
-3.112650
 20
-2.003996
  0
SEQEND
  8
0
  0
POLYLINE
  8
EBENE_1
  6
CONTINUOUS
 66
     1
 40
0.003000
 41
0.003000
  0
VERTEX
  8
EBENE_1
  6
CONTINUOUS
 10
-3.225445
 20
-2.238004
  0
VERTEX
  8
EBENE_1
  6
CONTINUOUS
 10
-3.360122
 20
-2.238004
  0
SEQEND
  8
0
  0
POLYLINE
  8
EBENE_1
  6
CONTINUOUS
 66
     1
 40
0.003000
 41
0.003000
  0
VERTEX
  8
EBENE_1
  6
CONTINUOUS
 10
-3.208610
 20
-2.199764
  0
VERTEX
  8
EBENE_1
  6
CONTINUOUS
 10
-3.208610
 20
-1.958059
  0
SEQEND
  8
0
  0
POLYLINE
  8
EBENE_1
  6
CONTINUOUS
 66
     1
 40
0.003000
 41
0.003000
  0
VERTEX
  8
EBENE_1
  6
CONTINUOUS
 10
-3.306252
 20
-2.238004
  0
VERTEX
  8
EBENE_1
  6
CONTINUOUS
 10
-3.306252
 20
-1.919819
  0
SEQEND
  8
0
  0
POLYLINE
  8
EBENE_1
  6
CONTINUOUS
 66
     1
 40
0.003000
 41
0.003000
  0
VERTEX
  8
EBENE_1
  6
CONTINUOUS
 10
-3.360122
 20
-2.238004
  0
VERTEX
  8
EBENE_1
  6
CONTINUOUS
 10
-3.360122
 20
-1.919819
  0
SEQEND
  8
0
  0
POLYLINE
  8
EBENE_1
  6
CONTINUOUS
 66
     1
 40
0.003000
 41
0.003000
  0
VERTEX
  8
EBENE_1
  6
CONTINUOUS
 10
-3.405579
 20
-2.159720
  0
VERTEX
  8
EBENE_1
  6
CONTINUOUS
 10
-3.360122
 20
-2.159720
  0
SEQEND
  8
0
  0
POLYLINE
  8
EBENE_1
  6
CONTINUOUS
 66
     1
 40
0.003000
 41
0.003000
  0
VERTEX
  8
EBENE_1
  6
CONTINUOUS
 10
-3.494803
 20
-2.078913
  0
VERTEX
  8
EBENE_1
  6
CONTINUOUS
 10
-3.494803
 20
-2.163087
  0
SEQEND
  8
0
  0
POLYLINE
  8
EBENE_1
  6
CONTINUOUS
 66
     1
 40
0.003000
 41
0.003000
  0
VERTEX
  8
EBENE_1
  6
CONTINUOUS
 10
-3.494803
 20
-2.163087
  0
VERTEX
  8
EBENE_1
  6
CONTINUOUS
 10
-3.477969
 20
-2.179921
  0
SEQEND
  8
0
  0
POLYLINE
  8
EBENE_1
  6
CONTINUOUS
 66
     1
 40
0.003000
 41
0.003000
  0
VERTEX
  8
EBENE_1
  6
CONTINUOUS
 10
-3.477969
 20
-2.179921
  0
VERTEX
  8
EBENE_1
  6
CONTINUOUS
 10
-3.425780
 20
-2.179921
  0
SEQEND
  8
0
  0
POLYLINE
  8
EBENE_1
  6
CONTINUOUS
 66
     1
 40
0.003000
 41
0.003000
  0
VERTEX
  8
EBENE_1
  6
CONTINUOUS
 10
-3.425780
 20
-2.179921
  0
VERTEX
  8
EBENE_1
  6
CONTINUOUS
 10
-3.405579
 20
-2.159720
  0
SEQEND
  8
0
  0
POLYLINE
  8
EBENE_1
  6
CONTINUOUS
 66
     1
 40
0.003000
 41
0.003000
  0
VERTEX
  8
EBENE_1
  6
CONTINUOUS
 10
-3.208610
 20
-2.150461
  0
VERTEX
  8
EBENE_1
  6
CONTINUOUS
 10
-3.112650
 20
-2.150461
  0
SEQEND
  8
0
  0
POLYLINE
  8
EBENE_1
  6
CONTINUOUS
 66
     1
 40
0.003000
 41
0.003000
  0
VERTEX
  8
EBENE_1
  6
CONTINUOUS
 10
-3.053728
 20
-2.153827
  0
VERTEX
  8
EBENE_1
  6
CONTINUOUS
 10
-3.053728
 20
-2.003996
  0
SEQEND
  8
0
  0
POLYLINE
  8
EBENE_1
  6
CONTINUOUS
 66
     1
 40
0.003000
 41
0.003000
  0
VERTEX
  8
EBENE_1
  6
CONTINUOUS
 10
-3.112650
 20
-2.153827
  0
VERTEX
  8
EBENE_1
  6
CONTINUOUS
 10
-3.053728
 20
-2.153827
  0
SEQEND
  8
0
  0
POLYLINE
  8
EBENE_1
  6
CONTINUOUS
 66
     1
 40
0.003000
 41
0.003000
  0
VERTEX
  8
EBENE_1
  6
CONTINUOUS
 10
-3.112650
 20
-2.150461
  0
VERTEX
  8
EBENE_1
  6
CONTINUOUS
 10
-3.112650
 20
-2.153827
  0
SEQEND
  8
0
  0
POLYLINE
  8
EBENE_1
  6
CONTINUOUS
 66
     1
 40
0.003000
 41
0.003000
  0
VERTEX
  8
EBENE_1
  6
CONTINUOUS
 10
-3.477969
 20
-2.179921
  0
VERTEX
  8
EBENE_1
  6
CONTINUOUS
 10
-3.477969
 20
-1.977902
  0
SEQEND
  8
0
  0
POLYLINE
  8
EBENE_1
  6
CONTINUOUS
 66
     1
 40
0.003000
 41
0.003000
  0
VERTEX
  8
EBENE_1
  6
CONTINUOUS
 10
-3.425780
 20
-2.179921
  0
VERTEX
  8
EBENE_1
  6
CONTINUOUS
 10
-3.425780
 20
-1.977902
  0
SEQEND
  8
0
  0
POLYLINE
  8
EBENE_1
  6
CONTINUOUS
 66
     1
 40
0.003000
 41
0.003000
  0
VERTEX
  8
EBENE_1
  6
CONTINUOUS
 10
-3.405579
 20
-2.159720
  0
VERTEX
  8
EBENE_1
  6
CONTINUOUS
 10
-3.405579
 20
-1.998102
  0
SEQEND
  8
0
  0
POLYLINE
  8
EBENE_1
  6
CONTINUOUS
 66
     1
 40
0.003000
 41
0.003000
  0
VERTEX
  8
EBENE_1
  6
CONTINUOUS
 10
-3.112650
 20
-2.007362
  0
VERTEX
  8
EBENE_1
  6
CONTINUOUS
 10
-3.112650
 20
-2.150461
  0
SEQEND
  8
0
  0
POLYLINE
  8
EBENE_1
  6
CONTINUOUS
 66
     1
 40
0.003000
 41
0.003000
  0
VERTEX
  8
EBENE_1
  6
CONTINUOUS
 10
-3.225445
 20
-1.996295
  0
VERTEX
  8
EBENE_1
  6
CONTINUOUS
 10
-3.306252
 20
-1.996295
  0
SEQEND
  8
0
  0
POLYLINE
  8
EBENE_1
  6
CONTINUOUS
 66
     1
 40
0.003000
 41
0.003000
  0
VERTEX
  8
EBENE_1
  6
CONTINUOUS
 10
-3.225445
 20
-2.161528
  0
VERTEX
  8
EBENE_1
  6
CONTINUOUS
 10
-3.306252
 20
-2.161528
  0
SEQEND
  8
0
  0
POLYLINE
  8
EBENE_1
  6
CONTINUOUS
 66
     1
 40
0.003000
 41
0.003000
  0
VERTEX
  8
EBENE_1
  6
CONTINUOUS
 10
-1.593240
 20
-2.036823
  0
VERTEX
  8
EBENE_1
  6
CONTINUOUS
 10
-1.610075
 20
-2.019988
  0
SEQEND
  8
0
  0
POLYLINE
  8
EBENE_1
  6
CONTINUOUS
 66
     1
 40
0.003000
 41
0.003000
  0
VERTEX
  8
EBENE_1
  6
CONTINUOUS
 10
-1.652161
 20
-2.019988
  0
VERTEX
  8
EBENE_1
  6
CONTINUOUS
 10
-1.610075
 20
-2.019988
  0
SEQEND
  8
0
  0
POLYLINE
  8
EBENE_1
  6
CONTINUOUS
 66
     1
 40
0.003000
 41
0.003000
  0
VERTEX
  8
EBENE_1
  6
CONTINUOUS
 10
-1.702669
 20
-1.986319
  0
VERTEX
  8
EBENE_1
  6
CONTINUOUS
 10
-1.702669
 20
-1.977902
  0
SEQEND
  8
0
  0
POLYLINE
  8
EBENE_1
  6
CONTINUOUS
 66
     1
 40
0.003000
 41
0.003000
  0
VERTEX
  8
EBENE_1
  6
CONTINUOUS
 10
-1.702669
 20
-1.977902
  0
VERTEX
  8
EBENE_1
  6
CONTINUOUS
 10
-1.719504
 20
-1.961067
  0
SEQEND
  8
0
  0
POLYLINE
  8
EBENE_1
  6
CONTINUOUS
 66
     1
 40
0.003000
 41
0.003000
  0
VERTEX
  8
EBENE_1
  6
CONTINUOUS
 10
-1.801154
 20
-1.961067
  0
VERTEX
  8
EBENE_1
  6
CONTINUOUS
 10
-1.719504
 20
-1.961067
  0
SEQEND
  8
0
  0
POLYLINE
  8
EBENE_1
  6
CONTINUOUS
 66
     1
 40
0.003000
 41
0.003000
  0
VERTEX
  8
EBENE_1
  6
CONTINUOUS
 10
-1.702669
 20
-2.179921
  0
VERTEX
  8
EBENE_1
  6
CONTINUOUS
 10
-1.719504
 20
-2.196756
  0
SEQEND
  8
0
  0
POLYLINE
  8
EBENE_1
  6
CONTINUOUS
 66
     1
 40
0.003000
 41
0.003000
  0
VERTEX
  8
EBENE_1
  6
CONTINUOUS
 10
-1.801154
 20
-2.196756
  0
VERTEX
  8
EBENE_1
  6
CONTINUOUS
 10
-1.719504
 20
-2.196756
  0
SEQEND
  8
0
  0
POLYLINE
  8
EBENE_1
  6
CONTINUOUS
 66
     1
 40
0.003000
 41
0.003000
  0
VERTEX
  8
EBENE_1
  6
CONTINUOUS
 10
-1.862602
 20
-2.238843
  0
VERTEX
  8
EBENE_1
  6
CONTINUOUS
 10
-1.862602
 20
-1.918980
  0
SEQEND
  8
0
  0
POLYLINE
  8
EBENE_1
  6
CONTINUOUS
 66
     1
 40
0.003000
 41
0.003000
  0
VERTEX
  8
EBENE_1
  6
CONTINUOUS
 10
-1.862602
 20
-2.238843
  0
VERTEX
  8
EBENE_1
  6
CONTINUOUS
 10
-1.913106
 20
-2.238843
  0
SEQEND
  8
0
  0
POLYLINE
  8
EBENE_1
  6
CONTINUOUS
 66
     1
 40
0.003000
 41
0.003000
  0
VERTEX
  8
EBENE_1
  6
CONTINUOUS
 10
-1.913106
 20
-2.238843
  0
VERTEX
  8
EBENE_1
  6
CONTINUOUS
 10
-1.913106
 20
-1.918980
  0
SEQEND
  8
0
  0
POLYLINE
  8
EBENE_1
  6
CONTINUOUS
 66
     1
 40
0.003000
 41
0.003000
  0
VERTEX
  8
EBENE_1
  6
CONTINUOUS
 10
-2.014114
 20
-2.195547
  0
VERTEX
  8
EBENE_1
  6
CONTINUOUS
 10
-2.014114
 20
-1.962276
  0
SEQEND
  8
0
  0
POLYLINE
  8
EBENE_1
  6
CONTINUOUS
 66
     1
 40
0.003000
 41
0.003000
  0
VERTEX
  8
EBENE_1
  6
CONTINUOUS
 10
-1.702669
 20
-2.171504
  0
VERTEX
  8
EBENE_1
  6
CONTINUOUS
 10
-1.702669
 20
-2.179921
  0
SEQEND
  8
0
  0
POLYLINE
  8
EBENE_1
  6
CONTINUOUS
 66
     1
 40
0.003000
 41
0.003000
  0
VERTEX
  8
EBENE_1
  6
CONTINUOUS
 10
-1.702669
 20
-2.171504
  0
VERTEX
  8
EBENE_1
  6
CONTINUOUS
 10
-1.652161
 20
-2.171504
  0
SEQEND
  8
0
  0
POLYLINE
  8
EBENE_1
  6
CONTINUOUS
 66
     1
 40
0.003000
 41
0.003000
  0
VERTEX
  8
EBENE_1
  6
CONTINUOUS
 10
-1.652161
 20
-2.171504
  0
VERTEX
  8
EBENE_1
  6
CONTINUOUS
 10
-1.652161
 20
-1.986319
  0
SEQEND
  8
0
  0
POLYLINE
  8
EBENE_1
  6
CONTINUOUS
 66
     1
 40
0.003000
 41
0.003000
  0
VERTEX
  8
EBENE_1
  6
CONTINUOUS
 10
-1.652161
 20
-2.137835
  0
VERTEX
  8
EBENE_1
  6
CONTINUOUS
 10
-1.610075
 20
-2.137835
  0
SEQEND
  8
0
  0
POLYLINE
  8
EBENE_1
  6
CONTINUOUS
 66
     1
 40
0.003000
 41
0.003000
  0
VERTEX
  8
EBENE_1
  6
CONTINUOUS
 10
-1.593240
 20
-2.121000
  0
VERTEX
  8
EBENE_1
  6
CONTINUOUS
 10
-1.610075
 20
-2.137835
  0
SEQEND
  8
0
  0
POLYLINE
  8
EBENE_1
  6
CONTINUOUS
 66
     1
 40
0.003000
 41
0.003000
  0
VERTEX
  8
EBENE_1
  6
CONTINUOUS
 10
-1.593240
 20
-2.121000
  0
VERTEX
  8
EBENE_1
  6
CONTINUOUS
 10
-1.593240
 20
-2.036823
  0
SEQEND
  8
0
  0
POLYLINE
  8
EBENE_1
  6
CONTINUOUS
 66
     1
 40
0.003000
 41
0.003000
  0
VERTEX
  8
EBENE_1
  6
CONTINUOUS
 10
-1.862602
 20
-1.980425
  0
VERTEX
  8
EBENE_1
  6
CONTINUOUS
 10
-1.820512
 20
-1.980425
  0
SEQEND
  8
0
  0
POLYLINE
  8
EBENE_1
  6
CONTINUOUS
 66
     1
 40
0.003000
 41
0.003000
  0
VERTEX
  8
EBENE_1
  6
CONTINUOUS
 10
-1.820512
 20
-1.980425
  0
VERTEX
  8
EBENE_1
  6
CONTINUOUS
 10
-1.801154
 20
-1.961067
  0
SEQEND
  8
0
  0
POLYLINE
  8
EBENE_1
  6
CONTINUOUS
 66
     1
 40
0.003000
 41
0.003000
  0
VERTEX
  8
EBENE_1
  6
CONTINUOUS
 10
-1.992929
 20
-1.923398
  0
VERTEX
  8
EBENE_1
  6
CONTINUOUS
 10
-1.996244
 20
-1.923874
  0
VERTEX
  8
EBENE_1
  6
CONTINUOUS
 10
-1.999476
 20
-1.925299
  0
VERTEX
  8
EBENE_1
  6
CONTINUOUS
 10
-2.002547
 20
-1.927634
  0
VERTEX
  8
EBENE_1
  6
CONTINUOUS
 10
-2.005382
 20
-1.930823
  0
VERTEX
  8
EBENE_1
  6
CONTINUOUS
 10
-2.007909
 20
-1.934783
  0
VERTEX
  8
EBENE_1
  6
CONTINUOUS
 10
-2.010071
 20
-1.939421
  0
VERTEX
  8
EBENE_1
  6
CONTINUOUS
 10
-2.011807
 20
-1.944626
  0
VERTEX
  8
EBENE_1
  6
CONTINUOUS
 10
-2.013079
 20
-1.950260
  0
VERTEX
  8
EBENE_1
  6
CONTINUOUS
 10
-2.013854
 20
-1.956193
  0
VERTEX
  8
EBENE_1
  6
CONTINUOUS
 10
-2.014114
 20
-1.962276
  0
VERTEX
  8
EBENE_1
  6
CONTINUOUS
 10
-2.013854
 20
-1.968358
  0
VERTEX
  8
EBENE_1
  6
CONTINUOUS
 10
-2.013079
 20
-1.974287
  0
VERTEX
  8
EBENE_1
  6
CONTINUOUS
 10
-2.011807
 20
-1.979925
  0
VERTEX
  8
EBENE_1
  6
CONTINUOUS
 10
-2.010071
 20
-1.985126
  0
VERTEX
  8
EBENE_1
  6
CONTINUOUS
 10
-2.007909
 20
-1.989768
  0
VERTEX
  8
EBENE_1
  6
CONTINUOUS
 10
-2.005382
 20
-1.993728
  0
VERTEX
  8
EBENE_1
  6
CONTINUOUS
 10
-2.002547
 20
-1.996917
  0
VERTEX
  8
EBENE_1
  6
CONTINUOUS
 10
-1.999476
 20
-1.999252
  0
VERTEX
  8
EBENE_1
  6
CONTINUOUS
 10
-1.996244
 20
-2.000677
  0
VERTEX
  8
EBENE_1
  6
CONTINUOUS
 10
-1.992929
 20
-2.001154
  0
SEQEND
  8
0
  0
POLYLINE
  8
EBENE_1
  6
CONTINUOUS
 66
     1
 40
0.003000
 41
0.003000
  0
VERTEX
  8
EBENE_1
  6
CONTINUOUS
 10
-1.992929
 20
-2.001154
  0
VERTEX
  8
EBENE_1
  6
CONTINUOUS
 10
-1.996244
 20
-2.002110
  0
VERTEX
  8
EBENE_1
  6
CONTINUOUS
 10
-1.999476
 20
-2.004961
  0
VERTEX
  8
EBENE_1
  6
CONTINUOUS
 10
-2.002547
 20
-2.009630
  0
VERTEX
  8
EBENE_1
  6
CONTINUOUS
 10
-2.005382
 20
-2.016004
  0
VERTEX
  8
EBENE_1
  6
CONTINUOUS
 10
-2.007909
 20
-2.023929
  0
VERTEX
  8
EBENE_1
  6
CONTINUOUS
 10
-2.010071
 20
-2.033209
  0
VERTEX
  8
EBENE_1
  6
CONTINUOUS
 10
-2.011807
 20
-2.043610
  0
VERTEX
  8
EBENE_1
  6
CONTINUOUS
 10
-2.013079
 20
-2.054882
  0
VERTEX
  8
EBENE_1
  6
CONTINUOUS
 10
-2.013854
 20
-2.066748
  0
VERTEX
  8
EBENE_1
  6
CONTINUOUS
 10
-2.014114
 20
-2.078913
  0
VERTEX
  8
EBENE_1
  6
CONTINUOUS
 10
-2.013854
 20
-2.091075
  0
VERTEX
  8
EBENE_1
  6
CONTINUOUS
 10
-2.013079
 20
-2.102941
  0
VERTEX
  8
EBENE_1
  6
CONTINUOUS
 10
-2.011807
 20
-2.114213
  0
VERTEX
  8
EBENE_1
  6
CONTINUOUS
 10
-2.010071
 20
-2.124618
  0
VERTEX
  8
EBENE_1
  6
CONTINUOUS
 10
-2.007909
 20
-2.133894
  0
VERTEX
  8
EBENE_1
  6
CONTINUOUS
 10
-2.005382
 20
-2.141819
  0
VERTEX
  8
EBENE_1
  6
CONTINUOUS
 10
-2.002547
 20
-2.148193
  0
VERTEX
  8
EBENE_1
  6
CONTINUOUS
 10
-1.999476
 20
-2.152862
  0
VERTEX
  8
EBENE_1
  6
CONTINUOUS
 10
-1.996244
 20
-2.155713
  0
VERTEX
  8
EBENE_1
  6
CONTINUOUS
 10
-1.992929
 20
-2.156669
  0
SEQEND
  8
0
  0
POLYLINE
  8
EBENE_1
  6
CONTINUOUS
 66
     1
 40
0.003000
 41
0.003000
  0
VERTEX
  8
EBENE_1
  6
CONTINUOUS
 10
-1.992929
 20
-2.156669
  0
VERTEX
  8
EBENE_1
  6
CONTINUOUS
 10
-1.996244
 20
-2.157150
  0
VERTEX
  8
EBENE_1
  6
CONTINUOUS
 10
-1.999476
 20
-2.158571
  0
VERTEX
  8
EBENE_1
  6
CONTINUOUS
 10
-2.002547
 20
-2.160906
  0
VERTEX
  8
EBENE_1
  6
CONTINUOUS
 10
-2.005382
 20
-2.164094
  0
VERTEX
  8
EBENE_1
  6
CONTINUOUS
 10
-2.007909
 20
-2.168055
  0
VERTEX
  8
EBENE_1
  6
CONTINUOUS
 10
-2.010071
 20
-2.172697
  0
VERTEX
  8
EBENE_1
  6
CONTINUOUS
 10
-2.011807
 20
-2.177898
  0
VERTEX
  8
EBENE_1
  6
CONTINUOUS
 10
-2.013079
 20
-2.183535
  0
VERTEX
  8
EBENE_1
  6
CONTINUOUS
 10
-2.013854
 20
-2.189465
  0
VERTEX
  8
EBENE_1
  6
CONTINUOUS
 10
-2.014114
 20
-2.195547
  0
VERTEX
  8
EBENE_1
  6
CONTINUOUS
 10
-2.013854
 20
-2.201630
  0
VERTEX
  8
EBENE_1
  6
CONTINUOUS
 10
-2.013079
 20
-2.207563
  0
VERTEX
  8
EBENE_1
  6
CONTINUOUS
 10
-2.011807
 20
-2.213197
  0
VERTEX
  8
EBENE_1
  6
CONTINUOUS
 10
-2.010071
 20
-2.218402
  0
VERTEX
  8
EBENE_1
  6
CONTINUOUS
 10
-2.007909
 20
-2.223039
  0
VERTEX
  8
EBENE_1
  6
CONTINUOUS
 10
-2.005382
 20
-2.227000
  0
VERTEX
  8
EBENE_1
  6
CONTINUOUS
 10
-2.002547
 20
-2.230189
  0
VERTEX
  8
EBENE_1
  6
CONTINUOUS
 10
-1.999476
 20
-2.232524
  0
VERTEX
  8
EBENE_1
  6
CONTINUOUS
 10
-1.996244
 20
-2.233949
  0
VERTEX
  8
EBENE_1
  6
CONTINUOUS
 10
-1.992929
 20
-2.234425
  0
SEQEND
  8
0
  0
POLYLINE
  8
EBENE_1
  6
CONTINUOUS
 66
     1
 40
0.003000
 41
0.003000
  0
VERTEX
  8
EBENE_1
  6
CONTINUOUS
 10
-1.862602
 20
-2.177398
  0
VERTEX
  8
EBENE_1
  6
CONTINUOUS
 10
-1.820512
 20
-2.177398
  0
SEQEND
  8
0
  0
POLYLINE
  8
EBENE_1
  6
CONTINUOUS
 66
     1
 40
0.003000
 41
0.003000
  0
VERTEX
  8
EBENE_1
  6
CONTINUOUS
 10
-1.820512
 20
-2.177398
  0
VERTEX
  8
EBENE_1
  6
CONTINUOUS
 10
-1.801154
 20
-2.196756
  0
SEQEND
  8
0
  0
POLYLINE
  8
EBENE_1
  6
CONTINUOUS
 66
     1
 40
0.003000
 41
0.003000
  0
VERTEX
  8
EBENE_1
  6
CONTINUOUS
 10
-1.702669
 20
-1.986319
  0
VERTEX
  8
EBENE_1
  6
CONTINUOUS
 10
-1.652161
 20
-1.986319
  0
SEQEND
  8
0
  0
POLYLINE
  8
EBENE_1
  6
CONTINUOUS
 66
     1
 40
0.003000
 41
0.003000
  0
VERTEX
  8
EBENE_1
  6
CONTINUOUS
 10
-1.862602
 20
-1.918980
  0
VERTEX
  8
EBENE_1
  6
CONTINUOUS
 10
-1.913106
 20
-1.918980
  0
SEQEND
  8
0
  0
POLYLINE
  8
EBENE_1
  6
CONTINUOUS
 66
     1
 40
0.003000
 41
0.003000
  0
VERTEX
  8
EBENE_1
  6
CONTINUOUS
 10
-1.820512
 20
-2.177398
  0
VERTEX
  8
EBENE_1
  6
CONTINUOUS
 10
-1.820512
 20
-1.980425
  0
SEQEND
  8
0
  0
POLYLINE
  8
EBENE_1
  6
CONTINUOUS
 66
     1
 40
0.003000
 41
0.003000
  0
VERTEX
  8
EBENE_1
  6
CONTINUOUS
 10
-1.801154
 20
-1.961067
  0
VERTEX
  8
EBENE_1
  6
CONTINUOUS
 10
-1.801154
 20
-2.196756
  0
SEQEND
  8
0
  0
POLYLINE
  8
EBENE_1
  6
CONTINUOUS
 66
     1
 40
0.003000
 41
0.003000
  0
VERTEX
  8
EBENE_1
  6
CONTINUOUS
 10
-1.719504
 20
-2.196756
  0
VERTEX
  8
EBENE_1
  6
CONTINUOUS
 10
-1.719504
 20
-1.961067
  0
SEQEND
  8
0
  0
POLYLINE
  8
EBENE_1
  6
CONTINUOUS
 66
     1
 40
0.003000
 41
0.003000
  0
VERTEX
  8
EBENE_1
  6
CONTINUOUS
 10
-1.702669
 20
-2.171504
  0
VERTEX
  8
EBENE_1
  6
CONTINUOUS
 10
-1.702669
 20
-1.986319
  0
SEQEND
  8
0
  0
POLYLINE
  8
EBENE_1
  6
CONTINUOUS
 66
     1
 40
0.003000
 41
0.003000
  0
VERTEX
  8
EBENE_1
  6
CONTINUOUS
 10
-1.610075
 20
-2.137835
  0
VERTEX
  8
EBENE_1
  6
CONTINUOUS
 10
-1.610075
 20
-2.019988
  0
SEQEND
  8
0
  0
POLYLINE
  8
EBENE_1
  6
CONTINUOUS
 66
     1
 40
0.003000
 41
0.003000
  0
VERTEX
  8
EBENE_1
  6
CONTINUOUS
 10
-1.913106
 20
-1.923398
  0
VERTEX
  8
EBENE_1
  6
CONTINUOUS
 10
-1.992929
 20
-1.923398
  0
SEQEND
  8
0
  0
POLYLINE
  8
EBENE_1
  6
CONTINUOUS
 66
     1
 40
0.003000
 41
0.003000
  0
VERTEX
  8
EBENE_1
  6
CONTINUOUS
 10
-1.913106
 20
-2.001154
  0
VERTEX
  8
EBENE_1
  6
CONTINUOUS
 10
-1.992929
 20
-2.001154
  0
SEQEND
  8
0
  0
POLYLINE
  8
EBENE_1
  6
CONTINUOUS
 66
     1
 40
0.003000
 41
0.003000
  0
VERTEX
  8
EBENE_1
  6
CONTINUOUS
 10
-1.913106
 20
-2.156669
  0
VERTEX
  8
EBENE_1
  6
CONTINUOUS
 10
-1.992929
 20
-2.156669
  0
SEQEND
  8
0
  0
POLYLINE
  8
EBENE_1
  6
CONTINUOUS
 66
     1
 40
0.003000
 41
0.003000
  0
VERTEX
  8
EBENE_1
  6
CONTINUOUS
 10
-1.913106
 20
-2.234425
  0
VERTEX
  8
EBENE_1
  6
CONTINUOUS
 10
-1.992929
 20
-2.234425
  0
SEQEND
  8
0
  0
POLYLINE
  8
EBENE_1
  6
CONTINUOUS
 66
     1
 40
0.003000
 41
0.003000
  0
VERTEX
  8
EBENE_1
  6
CONTINUOUS
 10
1.129189
 20
-2.184130
  0
VERTEX
  8
EBENE_1
  6
CONTINUOUS
 10
1.129189
 20
-1.973693
  0
SEQEND
  8
0
  0
POLYLINE
  8
EBENE_1
  6
CONTINUOUS
 66
     1
 40
0.003000
 41
0.003000
  0
VERTEX
  8
EBENE_1
  6
CONTINUOUS
 10
1.141815
 20
-2.196756
  0
VERTEX
  8
EBENE_1
  6
CONTINUOUS
 10
1.223465
 20
-2.196756
  0
SEQEND
  8
0
  0
POLYLINE
  8
EBENE_1
  6
CONTINUOUS
 66
     1
 40
0.003000
 41
0.003000
  0
VERTEX
  8
EBENE_1
  6
CONTINUOUS
 10
1.141815
 20
-1.961067
  0
VERTEX
  8
EBENE_1
  6
CONTINUOUS
 10
1.223465
 20
-1.961067
  0
SEQEND
  8
0
  0
POLYLINE
  8
EBENE_1
  6
CONTINUOUS
 66
     1
 40
0.003000
 41
0.003000
  0
VERTEX
  8
EBENE_1
  6
CONTINUOUS
 10
1.449055
 20
-1.976106
  0
VERTEX
  8
EBENE_1
  6
CONTINUOUS
 10
1.449055
 20
-1.910563
  0
SEQEND
  8
0
  0
POLYLINE
  8
EBENE_1
  6
CONTINUOUS
 66
     1
 40
0.003000
 41
0.003000
  0
VERTEX
  8
EBENE_1
  6
CONTINUOUS
 10
1.297539
 20
-1.981268
  0
VERTEX
  8
EBENE_1
  6
CONTINUOUS
 10
1.297539
 20
-1.876890
  0
SEQEND
  8
0
  0
POLYLINE
  8
EBENE_1
  6
CONTINUOUS
 66
     1
 40
0.003000
 41
0.003000
  0
VERTEX
  8
EBENE_1
  6
CONTINUOUS
 10
1.129189
 20
-1.973693
  0
VERTEX
  8
EBENE_1
  6
CONTINUOUS
 10
1.141815
 20
-1.961067
  0
SEQEND
  8
0
  0
POLYLINE
  8
EBENE_1
  6
CONTINUOUS
 66
     1
 40
0.003000
 41
0.003000
  0
VERTEX
  8
EBENE_1
  6
CONTINUOUS
 10
1.243669
 20
-1.981268
  0
VERTEX
  8
EBENE_1
  6
CONTINUOUS
 10
1.297539
 20
-1.981268
  0
SEQEND
  8
0
  0
POLYLINE
  8
EBENE_1
  6
CONTINUOUS
 66
     1
 40
0.003000
 41
0.003000
  0
VERTEX
  8
EBENE_1
  6
CONTINUOUS
 10
1.243669
 20
-1.981268
  0
VERTEX
  8
EBENE_1
  6
CONTINUOUS
 10
1.223465
 20
-1.961067
  0
SEQEND
  8
0
  0
POLYLINE
  8
EBENE_1
  6
CONTINUOUS
 66
     1
 40
0.003000
 41
0.003000
  0
VERTEX
  8
EBENE_1
  6
CONTINUOUS
 10
1.449055
 20
-2.247260
  0
VERTEX
  8
EBENE_1
  6
CONTINUOUS
 10
1.449055
 20
-2.181717
  0
SEQEND
  8
0
  0
POLYLINE
  8
EBENE_1
  6
CONTINUOUS
 66
     1
 40
0.003000
 41
0.003000
  0
VERTEX
  8
EBENE_1
  6
CONTINUOUS
 10
1.297539
 20
-2.280933
  0
VERTEX
  8
EBENE_1
  6
CONTINUOUS
 10
1.297539
 20
-2.176555
  0
SEQEND
  8
0
  0
POLYLINE
  8
EBENE_1
  6
CONTINUOUS
 66
     1
 40
0.003000
 41
0.003000
  0
VERTEX
  8
EBENE_1
  6
CONTINUOUS
 10
1.129189
 20
-2.184130
  0
VERTEX
  8
EBENE_1
  6
CONTINUOUS
 10
1.141815
 20
-2.196756
  0
SEQEND
  8
0
  0
POLYLINE
  8
EBENE_1
  6
CONTINUOUS
 66
     1
 40
0.003000
 41
0.003000
  0
VERTEX
  8
EBENE_1
  6
CONTINUOUS
 10
1.243669
 20
-2.176555
  0
VERTEX
  8
EBENE_1
  6
CONTINUOUS
 10
1.297539
 20
-2.176555
  0
SEQEND
  8
0
  0
POLYLINE
  8
EBENE_1
  6
CONTINUOUS
 66
     1
 40
0.003000
 41
0.003000
  0
VERTEX
  8
EBENE_1
  6
CONTINUOUS
 10
1.243669
 20
-2.176555
  0
VERTEX
  8
EBENE_1
  6
CONTINUOUS
 10
1.223465
 20
-2.196756
  0
SEQEND
  8
0
  0
POLYLINE
  8
EBENE_1
  6
CONTINUOUS
 66
     1
 40
0.003000
 41
0.003000
  0
VERTEX
  8
EBENE_1
  6
CONTINUOUS
 10
1.459157
 20
-1.972429
  0
VERTEX
  8
EBENE_1
  6
CONTINUOUS
 10
1.565217
 20
-1.972429
  0
SEQEND
  8
0
  0
POLYLINE
  8
EBENE_1
  6
CONTINUOUS
 66
     1
 40
0.003000
 41
0.003000
  0
VERTEX
  8
EBENE_1
  6
CONTINUOUS
 10
1.565217
 20
-1.970327
  0
VERTEX
  8
EBENE_1
  6
CONTINUOUS
 10
1.636764
 20
-1.970327
  0
SEQEND
  8
0
  0
POLYLINE
  8
EBENE_1
  6
CONTINUOUS
 66
     1
 40
0.003000
 41
0.003000
  0
VERTEX
  8
EBENE_1
  6
CONTINUOUS
 10
1.565217
 20
-1.972429
  0
VERTEX
  8
EBENE_1
  6
CONTINUOUS
 10
1.565217
 20
-1.970327
  0
SEQEND
  8
0
  0
POLYLINE
  8
EBENE_1
  6
CONTINUOUS
 66
     1
 40
0.003000
 41
0.003000
  0
VERTEX
  8
EBENE_1
  6
CONTINUOUS
 10
1.449055
 20
-1.976106
  0
VERTEX
  8
EBENE_1
  6
CONTINUOUS
 10
1.459157
 20
-1.972429
  0
SEQEND
  8
0
  0
POLYLINE
  8
EBENE_1
  6
CONTINUOUS
 66
     1
 40
0.003000
 41
0.003000
  0
VERTEX
  8
EBENE_1
  6
CONTINUOUS
 10
1.459157
 20
-2.185394
  0
VERTEX
  8
EBENE_1
  6
CONTINUOUS
 10
1.565217
 20
-2.185394
  0
SEQEND
  8
0
  0
POLYLINE
  8
EBENE_1
  6
CONTINUOUS
 66
     1
 40
0.003000
 41
0.003000
  0
VERTEX
  8
EBENE_1
  6
CONTINUOUS
 10
1.565217
 20
-2.187496
  0
VERTEX
  8
EBENE_1
  6
CONTINUOUS
 10
1.636764
 20
-2.187496
  0
SEQEND
  8
0
  0
POLYLINE
  8
EBENE_1
  6
CONTINUOUS
 66
     1
 40
0.003000
 41
0.003000
  0
VERTEX
  8
EBENE_1
  6
CONTINUOUS
 10
1.565217
 20
-2.185394
  0
VERTEX
  8
EBENE_1
  6
CONTINUOUS
 10
1.565217
 20
-2.187496
  0
SEQEND
  8
0
  0
POLYLINE
  8
EBENE_1
  6
CONTINUOUS
 66
     1
 40
0.003000
 41
0.003000
  0
VERTEX
  8
EBENE_1
  6
CONTINUOUS
 10
1.636764
 20
-2.187496
  0
VERTEX
  8
EBENE_1
  6
CONTINUOUS
 10
1.636764
 20
-1.970327
  0
SEQEND
  8
0
  0
POLYLINE
  8
EBENE_1
  6
CONTINUOUS
 66
     1
 40
0.003000
 41
0.003000
  0
VERTEX
  8
EBENE_1
  6
CONTINUOUS
 10
1.449055
 20
-2.181717
  0
VERTEX
  8
EBENE_1
  6
CONTINUOUS
 10
1.459157
 20
-2.185394
  0
SEQEND
  8
0
  0
POLYLINE
  8
EBENE_1
  6
CONTINUOUS
 66
     1
 40
0.003000
 41
0.003000
  0
VERTEX
  8
EBENE_1
  6
CONTINUOUS
 10
1.297539
 20
-1.876890
  0
VERTEX
  8
EBENE_1
  6
CONTINUOUS
 10
1.348043
 20
-1.876890
  0
SEQEND
  8
0
  0
POLYLINE
  8
EBENE_1
  6
CONTINUOUS
 66
     1
 40
0.003000
 41
0.003000
  0
VERTEX
  8
EBENE_1
  6
CONTINUOUS
 10
1.297539
 20
-2.280933
  0
VERTEX
  8
EBENE_1
  6
CONTINUOUS
 10
1.348043
 20
-2.280933
  0
SEQEND
  8
0
  0
POLYLINE
  8
EBENE_1
  6
CONTINUOUS
 66
     1
 40
0.003000
 41
0.003000
  0
VERTEX
  8
EBENE_1
  6
CONTINUOUS
 10
1.141815
 20
-1.961067
  0
VERTEX
  8
EBENE_1
  6
CONTINUOUS
 10
1.141815
 20
-2.196756
  0
SEQEND
  8
0
  0
POLYLINE
  8
EBENE_1
  6
CONTINUOUS
 66
     1
 40
0.003000
 41
0.003000
  0
VERTEX
  8
EBENE_1
  6
CONTINUOUS
 10
1.223465
 20
-2.196756
  0
VERTEX
  8
EBENE_1
  6
CONTINUOUS
 10
1.223465
 20
-1.961067
  0
SEQEND
  8
0
  0
POLYLINE
  8
EBENE_1
  6
CONTINUOUS
 66
     1
 40
0.003000
 41
0.003000
  0
VERTEX
  8
EBENE_1
  6
CONTINUOUS
 10
1.243669
 20
-1.981268
  0
VERTEX
  8
EBENE_1
  6
CONTINUOUS
 10
1.243669
 20
-2.176555
  0
SEQEND
  8
0
  0
POLYLINE
  8
EBENE_1
  6
CONTINUOUS
 66
     1
 40
0.003000
 41
0.003000
  0
VERTEX
  8
EBENE_1
  6
CONTINUOUS
 10
1.297539
 20
-2.176555
  0
VERTEX
  8
EBENE_1
  6
CONTINUOUS
 10
1.297539
 20
-1.981268
  0
SEQEND
  8
0
  0
POLYLINE
  8
EBENE_1
  6
CONTINUOUS
 66
     1
 40
0.003000
 41
0.003000
  0
VERTEX
  8
EBENE_1
  6
CONTINUOUS
 10
1.449055
 20
-1.976106
  0
VERTEX
  8
EBENE_1
  6
CONTINUOUS
 10
1.449055
 20
-2.181717
  0
SEQEND
  8
0
  0
POLYLINE
  8
EBENE_1
  6
CONTINUOUS
 66
     1
 40
0.003000
 41
0.003000
  0
VERTEX
  8
EBENE_1
  6
CONTINUOUS
 10
1.348043
 20
-2.247260
  0
VERTEX
  8
EBENE_1
  6
CONTINUOUS
 10
1.449055
 20
-2.247260
  0
SEQEND
  8
0
  0
POLYLINE
  8
EBENE_1
  6
CONTINUOUS
 66
     1
 40
0.003000
 41
0.003000
  0
VERTEX
  8
EBENE_1
  6
CONTINUOUS
 10
1.348043
 20
-1.910563
  0
VERTEX
  8
EBENE_1
  6
CONTINUOUS
 10
1.449055
 20
-1.910563
  0
SEQEND
  8
0
  0
POLYLINE
  8
EBENE_1
  6
CONTINUOUS
 66
     1
 40
0.003000
 41
0.003000
  0
VERTEX
  8
EBENE_1
  6
CONTINUOUS
 10
1.348043
 20
-2.280933
  0
VERTEX
  8
EBENE_1
  6
CONTINUOUS
 10
1.348043
 20
-1.910563
  0
SEQEND
  8
0
  0
POLYLINE
  8
EBENE_1
  6
CONTINUOUS
 66
     1
 40
0.003000
 41
0.003000
  0
VERTEX
  8
EBENE_1
  6
CONTINUOUS
 10
1.348043
 20
-1.910563
  0
VERTEX
  8
EBENE_1
  6
CONTINUOUS
 10
1.348043
 20
-1.876890
  0
SEQEND
  8
0
  0
POLYLINE
  8
EBENE_1
  6
CONTINUOUS
 66
     1
 40
0.003000
 41
0.003000
  0
VERTEX
  8
EBENE_1
  6
CONTINUOUS
 10
1.449055
 20
-2.078913
  0
VERTEX
  8
EBENE_1
  6
CONTINUOUS
 10
1.348043
 20
-2.078913
  0
SEQEND
  8
0
  0
POLYLINE
  8
EBENE_1
  6
CONTINUOUS
 66
     1
 40
0.003000
 41
0.003000
  0
VERTEX
  8
EBENE_1
  6
CONTINUOUS
 10
2.949945
 20
-1.927398
  0
VERTEX
  8
EBENE_1
  6
CONTINUOUS
 10
2.963413
 20
-1.940866
  0
SEQEND
  8
0
  0
POLYLINE
  8
EBENE_1
  6
CONTINUOUS
 66
     1
 40
0.003000
 41
0.003000
  0
VERTEX
  8
EBENE_1
  6
CONTINUOUS
 10
2.835469
 20
-1.927398
  0
VERTEX
  8
EBENE_1
  6
CONTINUOUS
 10
2.949945
 20
-1.927398
  0
SEQEND
  8
0
  0
POLYLINE
  8
EBENE_1
  6
CONTINUOUS
 66
     1
 40
0.003000
 41
0.003000
  0
VERTEX
  8
EBENE_1
  6
CONTINUOUS
 10
2.707520
 20
-1.910563
  0
VERTEX
  8
EBENE_1
  6
CONTINUOUS
 10
2.707520
 20
-1.876890
  0
SEQEND
  8
0
  0
POLYLINE
  8
EBENE_1
  6
CONTINUOUS
 66
     1
 40
0.003000
 41
0.003000
  0
VERTEX
  8
EBENE_1
  6
CONTINUOUS
 10
2.609878
 20
-1.910563
  0
VERTEX
  8
EBENE_1
  6
CONTINUOUS
 10
2.707520
 20
-1.910563
  0
SEQEND
  8
0
  0
POLYLINE
  8
EBENE_1
  6
CONTINUOUS
 66
     1
 40
0.003000
 41
0.003000
  0
VERTEX
  8
EBENE_1
  6
CONTINUOUS
 10
2.761394
 20
-1.947598
  0
VERTEX
  8
EBENE_1
  6
CONTINUOUS
 10
2.815264
 20
-1.947598
  0
SEQEND
  8
0
  0
POLYLINE
  8
EBENE_1
  6
CONTINUOUS
 66
     1
 40
0.003000
 41
0.003000
  0
VERTEX
  8
EBENE_1
  6
CONTINUOUS
 10
2.815264
 20
-1.947598
  0
VERTEX
  8
EBENE_1
  6
CONTINUOUS
 10
2.835469
 20
-1.927398
  0
SEQEND
  8
0
  0
POLYLINE
  8
EBENE_1
  6
CONTINUOUS
 66
     1
 40
0.003000
 41
0.003000
  0
VERTEX
  8
EBENE_1
  6
CONTINUOUS
 10
3.131764
 20
-2.184130
  0
VERTEX
  8
EBENE_1
  6
CONTINUOUS
 10
3.131764
 20
-1.973693
  0
SEQEND
  8
0
  0
POLYLINE
  8
EBENE_1
  6
CONTINUOUS
 66
     1
 40
0.003000
 41
0.003000
  0
VERTEX
  8
EBENE_1
  6
CONTINUOUS
 10
2.949945
 20
-2.230425
  0
VERTEX
  8
EBENE_1
  6
CONTINUOUS
 10
2.963413
 20
-2.216957
  0
SEQEND
  8
0
  0
POLYLINE
  8
EBENE_1
  6
CONTINUOUS
 66
     1
 40
0.003000
 41
0.003000
  0
VERTEX
  8
EBENE_1
  6
CONTINUOUS
 10
2.835469
 20
-2.230425
  0
VERTEX
  8
EBENE_1
  6
CONTINUOUS
 10
2.949945
 20
-2.230425
  0
SEQEND
  8
0
  0
POLYLINE
  8
EBENE_1
  6
CONTINUOUS
 66
     1
 40
0.003000
 41
0.003000
  0
VERTEX
  8
EBENE_1
  6
CONTINUOUS
 10
2.761394
 20
-2.280933
  0
VERTEX
  8
EBENE_1
  6
CONTINUOUS
 10
2.761394
 20
-1.876890
  0
SEQEND
  8
0
  0
POLYLINE
  8
EBENE_1
  6
CONTINUOUS
 66
     1
 40
0.003000
 41
0.003000
  0
VERTEX
  8
EBENE_1
  6
CONTINUOUS
 10
2.707520
 20
-2.280933
  0
VERTEX
  8
EBENE_1
  6
CONTINUOUS
 10
2.761394
 20
-2.280933
  0
SEQEND
  8
0
  0
POLYLINE
  8
EBENE_1
  6
CONTINUOUS
 66
     1
 40
0.003000
 41
0.003000
  0
VERTEX
  8
EBENE_1
  6
CONTINUOUS
 10
2.609878
 20
-2.247260
  0
VERTEX
  8
EBENE_1
  6
CONTINUOUS
 10
2.609878
 20
-1.910563
  0
SEQEND
  8
0
  0
POLYLINE
  8
EBENE_1
  6
CONTINUOUS
 66
     1
 40
0.003000
 41
0.003000
  0
VERTEX
  8
EBENE_1
  6
CONTINUOUS
 10
2.707520
 20
-2.280933
  0
VERTEX
  8
EBENE_1
  6
CONTINUOUS
 10
2.707520
 20
-1.910563
  0
SEQEND
  8
0
  0
POLYLINE
  8
EBENE_1
  6
CONTINUOUS
 66
     1
 40
0.003000
 41
0.003000
  0
VERTEX
  8
EBENE_1
  6
CONTINUOUS
 10
2.761394
 20
-2.210224
  0
VERTEX
  8
EBENE_1
  6
CONTINUOUS
 10
2.815264
 20
-2.210224
  0
SEQEND
  8
0
  0
POLYLINE
  8
EBENE_1
  6
CONTINUOUS
 66
     1
 40
0.003000
 41
0.003000
  0
VERTEX
  8
EBENE_1
  6
CONTINUOUS
 10
2.815264
 20
-2.210224
  0
VERTEX
  8
EBENE_1
  6
CONTINUOUS
 10
2.835469
 20
-2.230425
  0
SEQEND
  8
0
  0
POLYLINE
  8
EBENE_1
  6
CONTINUOUS
 66
     1
 40
0.003000
 41
0.003000
  0
VERTEX
  8
EBENE_1
  6
CONTINUOUS
 10
2.609878
 20
-2.078913
  0
VERTEX
  8
EBENE_1
  6
CONTINUOUS
 10
2.707520
 20
-2.078913
  0
SEQEND
  8
0
  0
POLYLINE
  8
EBENE_1
  6
CONTINUOUS
 66
     1
 40
0.003000
 41
0.003000
  0
VERTEX
  8
EBENE_1
  6
CONTINUOUS
 10
2.707520
 20
-1.876890
  0
VERTEX
  8
EBENE_1
  6
CONTINUOUS
 10
2.761394
 20
-1.876890
  0
SEQEND
  8
0
  0
POLYLINE
  8
EBENE_1
  6
CONTINUOUS
 66
     1
 40
0.003000
 41
0.003000
  0
VERTEX
  8
EBENE_1
  6
CONTINUOUS
 10
2.963413
 20
-1.956858
  0
VERTEX
  8
EBENE_1
  6
CONTINUOUS
 10
2.963413
 20
-1.940866
  0
SEQEND
  8
0
  0
POLYLINE
  8
EBENE_1
  6
CONTINUOUS
 66
     1
 40
0.003000
 41
0.003000
  0
VERTEX
  8
EBENE_1
  6
CONTINUOUS
 10
2.963413
 20
-1.956858
  0
VERTEX
  8
EBENE_1
  6
CONTINUOUS
 10
3.114929
 20
-1.956858
  0
SEQEND
  8
0
  0
POLYLINE
  8
EBENE_1
  6
CONTINUOUS
 66
     1
 40
0.003000
 41
0.003000
  0
VERTEX
  8
EBENE_1
  6
CONTINUOUS
 10
3.114929
 20
-1.956858
  0
VERTEX
  8
EBENE_1
  6
CONTINUOUS
 10
3.131764
 20
-1.973693
  0
SEQEND
  8
0
  0
POLYLINE
  8
EBENE_1
  6
CONTINUOUS
 66
     1
 40
0.003000
 41
0.003000
  0
VERTEX
  8
EBENE_1
  6
CONTINUOUS
 10
2.963413
 20
-2.200965
  0
VERTEX
  8
EBENE_1
  6
CONTINUOUS
 10
2.963413
 20
-2.216957
  0
SEQEND
  8
0
  0
POLYLINE
  8
EBENE_1
  6
CONTINUOUS
 66
     1
 40
0.003000
 41
0.003000
  0
VERTEX
  8
EBENE_1
  6
CONTINUOUS
 10
2.963413
 20
-2.200965
  0
VERTEX
  8
EBENE_1
  6
CONTINUOUS
 10
3.114929
 20
-2.200965
  0
SEQEND
  8
0
  0
POLYLINE
  8
EBENE_1
  6
CONTINUOUS
 66
     1
 40
0.003000
 41
0.003000
  0
VERTEX
  8
EBENE_1
  6
CONTINUOUS
 10
3.114929
 20
-2.200965
  0
VERTEX
  8
EBENE_1
  6
CONTINUOUS
 10
3.131764
 20
-2.184130
  0
SEQEND
  8
0
  0
POLYLINE
  8
EBENE_1
  6
CONTINUOUS
 66
     1
 40
0.003000
 41
0.003000
  0
VERTEX
  8
EBENE_1
  6
CONTINUOUS
 10
2.609878
 20
-2.247260
  0
VERTEX
  8
EBENE_1
  6
CONTINUOUS
 10
2.707520
 20
-2.247260
  0
SEQEND
  8
0
  0
POLYLINE
  8
EBENE_1
  6
CONTINUOUS
 66
     1
 40
0.003000
 41
0.003000
  0
VERTEX
  8
EBENE_1
  6
CONTINUOUS
 10
3.114929
 20
-2.200965
  0
VERTEX
  8
EBENE_1
  6
CONTINUOUS
 10
3.114929
 20
-1.956858
  0
SEQEND
  8
0
  0
POLYLINE
  8
EBENE_1
  6
CONTINUOUS
 66
     1
 40
0.003000
 41
0.003000
  0
VERTEX
  8
EBENE_1
  6
CONTINUOUS
 10
2.963413
 20
-1.956858
  0
VERTEX
  8
EBENE_1
  6
CONTINUOUS
 10
2.963413
 20
-2.200965
  0
SEQEND
  8
0
  0
POLYLINE
  8
EBENE_1
  6
CONTINUOUS
 66
     1
 40
0.003000
 41
0.003000
  0
VERTEX
  8
EBENE_1
  6
CONTINUOUS
 10
2.949945
 20
-2.230425
  0
VERTEX
  8
EBENE_1
  6
CONTINUOUS
 10
2.949945
 20
-1.927398
  0
SEQEND
  8
0
  0
POLYLINE
  8
EBENE_1
  6
CONTINUOUS
 66
     1
 40
0.003000
 41
0.003000
  0
VERTEX
  8
EBENE_1
  6
CONTINUOUS
 10
2.835469
 20
-1.927398
  0
VERTEX
  8
EBENE_1
  6
CONTINUOUS
 10
2.835469
 20
-2.230425
  0
SEQEND
  8
0
  0
POLYLINE
  8
EBENE_1
  6
CONTINUOUS
 66
     1
 40
0.003000
 41
0.003000
  0
VERTEX
  8
EBENE_1
  6
CONTINUOUS
 10
2.815264
 20
-2.210224
  0
VERTEX
  8
EBENE_1
  6
CONTINUOUS
 10
2.815264
 20
-1.947598
  0
SEQEND
  8
0
  0
POLYLINE
  8
EBENE_1
  6
CONTINUOUS
 66
     1
 40
0.003000
 41
0.003000
  0
VERTEX
  8
EBENE_1
  6
CONTINUOUS
 10
-4.713803
 20
3.232323
  0
VERTEX
  8
EBENE_1
  6
CONTINUOUS
 10
4.545453
 20
3.232323
  0
SEQEND
  8
0
  0
POLYLINE
  8
EBENE_1
  6
CONTINUOUS
 66
     1
 40
0.003000
 41
0.003000
  0
VERTEX
  8
EBENE_1
  6
CONTINUOUS
 10
4.545453
 20
3.232323
  0
VERTEX
  8
EBENE_1
  6
CONTINUOUS
 10
4.545453
 20
-3.333331
  0
SEQEND
  8
0
  0
POLYLINE
  8
EBENE_1
  6
CONTINUOUS
 66
     1
 40
0.003000
 41
0.003000
  0
VERTEX
  8
EBENE_1
  6
CONTINUOUS
 10
4.545453
 20
-3.333331
  0
VERTEX
  8
EBENE_1
  6
CONTINUOUS
 10
-4.713803
 20
-3.333331
  0
SEQEND
  8
0
  0
POLYLINE
  8
EBENE_1
  6
CONTINUOUS
 66
     1
 40
0.003000
 41
0.003000
  0
VERTEX
  8
EBENE_1
  6
CONTINUOUS
 10
-4.713803
 20
-3.333331
  0
VERTEX
  8
EBENE_1
  6
CONTINUOUS
 10
-4.713803
 20
3.232323
  0
SEQEND
  8
0
  0
POLYLINE
  8
EBENE_1
  6
CONTINUOUS
 66
     1
 40
0.003000
 41
0.003000
  0
VERTEX
  8
EBENE_1
  6
CONTINUOUS
 10
4.545453
 20
-2.403252
  0
VERTEX
  8
EBENE_1
  6
CONTINUOUS
 10
1.394118
 20
-2.403252
  0
SEQEND
  8
0
  0
POLYLINE
  8
EBENE_1
  6
CONTINUOUS
 66
     1
 40
0.003000
 41
0.003000
  0
VERTEX
  8
EBENE_1
  6
CONTINUOUS
 10
1.394118
 20
-2.403252
  0
VERTEX
  8
EBENE_1
  6
CONTINUOUS
 10
1.394118
 20
-3.333331
  0
SEQEND
  8
0
  0
POLYLINE
  8
EBENE_1
  6
CONTINUOUS
 66
     1
 40
0.003000
 41
0.003000
  0
VERTEX
  8
EBENE_1
  6
CONTINUOUS
 10
1.394118
 20
-3.261787
  0
VERTEX
  8
EBENE_1
  6
CONTINUOUS
 10
4.545453
 20
-3.261787
  0
SEQEND
  8
0
  0
POLYLINE
  8
EBENE_1
  6
CONTINUOUS
 66
     1
 40
0.003000
 41
0.003000
  0
VERTEX
  8
EBENE_1
  6
CONTINUOUS
 10
4.326610
 20
-3.261787
  0
VERTEX
  8
EBENE_1
  6
CONTINUOUS
 10
4.326610
 20
-3.047154
  0
SEQEND
  8
0
  0
POLYLINE
  8
EBENE_1
  6
CONTINUOUS
 66
     1
 40
0.003000
 41
0.003000
  0
VERTEX
  8
EBENE_1
  6
CONTINUOUS
 10
3.057323
 20
-2.403252
  0
VERTEX
  8
EBENE_1
  6
CONTINUOUS
 10
3.057323
 20
-3.333331
  0
SEQEND
  8
0
  0
POLYLINE
  8
EBENE_1
  6
CONTINUOUS
 66
     1
 40
0.003000
 41
0.003000
  0
VERTEX
  8
EBENE_1
  6
CONTINUOUS
 10
1.394118
 20
-2.689429
  0
VERTEX
  8
EBENE_1
  6
CONTINUOUS
 10
4.545453
 20
-2.689429
  0
SEQEND
  8
0
  0
POLYLINE
  8
EBENE_1
  6
CONTINUOUS
 66
     1
 40
0.003000
 41
0.003000
  0
VERTEX
  8
EBENE_1
  6
CONTINUOUS
 10
2.313256
 20
-3.047154
  0
VERTEX
  8
EBENE_1
  6
CONTINUOUS
 10
4.545453
 20
-3.047154
  0
SEQEND
  8
0
  0
POLYLINE
  8
EBENE_1
  6
CONTINUOUS
 66
     1
 40
0.003000
 41
0.003000
  0
VERTEX
  8
EBENE_1
  6
CONTINUOUS
 10
2.313256
 20
-2.403252
  0
VERTEX
  8
EBENE_1
  6
CONTINUOUS
 10
2.313256
 20
-3.333331
  0
SEQEND
  8
0
  0
POLYLINE
  8
EBENE_1
  6
CONTINUOUS
 66
     1
 40
0.003000
 41
0.003000
  0
VERTEX
  8
EBENE_1
  6
CONTINUOUS
 10
-4.713803
 20
2.011783
  0
VERTEX
  8
EBENE_1
  6
CONTINUOUS
 10
4.545453
 20
2.011783
  0
SEQEND
  8
0
  0
POLYLINE
  8
EBENE_1
  6
CONTINUOUS
 66
     1
 40
0.003000
 41
0.003000
  0
VERTEX
  8
EBENE_1
  6
CONTINUOUS
 10
-4.713803
 20
0.454543
  0
VERTEX
  8
EBENE_1
  6
CONTINUOUS
 10
4.545453
 20
0.454543
  0
SEQEND
  8
0
  0
POLYLINE
  8
EBENE_1
  6
CONTINUOUS
 66
     1
 40
0.003000
 41
0.003000
  0
VERTEX
  8
EBENE_1
  6
CONTINUOUS
 10
-4.713803
 20
-1.186866
  0
VERTEX
  8
EBENE_1
  6
CONTINUOUS
 10
4.545453
 20
-1.186866
  0
SEQEND
  8
0
  0
POLYLINE
  8
EBENE_1
  6
CONTINUOUS
 66
     1
 40
0.003000
 41
0.003000
  0
VERTEX
  8
EBENE_1
  6
CONTINUOUS
 10
-0.084173
 20
-3.333331
  0
VERTEX
  8
EBENE_1
  6
CONTINUOUS
 10
-0.084173
 20
3.232323
  0
SEQEND
  8
0
  0
POLYLINE
  8
EBENE_1
  6
CONTINUOUS
 66
     1
 40
0.003000
 41
0.003000
  0
VERTEX
  8
EBENE_1
  6
CONTINUOUS
 10
4.545453
 20
1.464646
  0
VERTEX
  8
EBENE_1
  6
CONTINUOUS
 10
4.629626
 20
1.464646
  0
SEQEND
  8
0
  0
POLYLINE
  8
EBENE_1
  6
CONTINUOUS
 66
     1
 40
0.003000
 41
0.003000
  0
VERTEX
  8
EBENE_1
  6
CONTINUOUS
 10
-4.797976
 20
1.464646
  0
VERTEX
  8
EBENE_1
  6
CONTINUOUS
 10
-4.713803
 20
1.464646
  0
SEQEND
  8
0
  0
POLYLINE
  8
EBENE_1
  6
CONTINUOUS
 66
     1
 40
0.003000
 41
0.003000
  0
VERTEX
  8
EBENE_1
  6
CONTINUOUS
 10
-4.999996
 20
-3.535350
  0
VERTEX
  8
EBENE_1
  6
CONTINUOUS
 10
4.999996
 20
-3.535350
  0
SEQEND
  8
0
  0
POLYLINE
  8
EBENE_1
  6
CONTINUOUS
 66
     1
 40
0.003000
 41
0.003000
  0
VERTEX
  8
EBENE_1
  6
CONTINUOUS
 10
4.999996
 20
-3.535350
  0
VERTEX
  8
EBENE_1
  6
CONTINUOUS
 10
4.999996
 20
3.535350
  0
SEQEND
  8
0
  0
POLYLINE
  8
EBENE_1
  6
CONTINUOUS
 66
     1
 40
0.003000
 41
0.003000
  0
VERTEX
  8
EBENE_1
  6
CONTINUOUS
 10
4.999996
 20
3.535350
  0
VERTEX
  8
EBENE_1
  6
CONTINUOUS
 10
-4.999996
 20
3.535350
  0
SEQEND
  8
0
  0
POLYLINE
  8
EBENE_1
  6
CONTINUOUS
 66
     1
 40
0.003000
 41
0.003000
  0
VERTEX
  8
EBENE_1
  6
CONTINUOUS
 10
-4.999996
 20
3.535350
  0
VERTEX
  8
EBENE_1
  6
CONTINUOUS
 10
-4.999996
 20
-3.535350
  0
SEQEND
  8
0
  0
POLYLINE
  8
EBENE_1
  6
CONTINUOUS
 66
     1
 40
0.003000
 41
0.003000
  0
VERTEX
  8
EBENE_1
  6
CONTINUOUS
 10
-4.797976
 20
-3.417508
  0
VERTEX
  8
EBENE_1
  6
CONTINUOUS
 10
4.629626
 20
-3.417508
  0
SEQEND
  8
0
  0
POLYLINE
  8
EBENE_1
  6
CONTINUOUS
 66
     1
 40
0.003000
 41
0.003000
  0
VERTEX
  8
EBENE_1
  6
CONTINUOUS
 10
4.629626
 20
-3.417508
  0
VERTEX
  8
EBENE_1
  6
CONTINUOUS
 10
4.629626
 20
3.316496
  0
SEQEND
  8
0
  0
POLYLINE
  8
EBENE_1
  6
CONTINUOUS
 66
     1
 40
0.003000
 41
0.003000
  0
VERTEX
  8
EBENE_1
  6
CONTINUOUS
 10
4.629626
 20
3.316496
  0
VERTEX
  8
EBENE_1
  6
CONTINUOUS
 10
-4.797976
 20
3.316496
  0
SEQEND
  8
0
  0
POLYLINE
  8
EBENE_1
  6
CONTINUOUS
 66
     1
 40
0.003000
 41
0.003000
  0
VERTEX
  8
EBENE_1
  6
CONTINUOUS
 10
-4.797976
 20
3.316496
  0
VERTEX
  8
EBENE_1
  6
CONTINUOUS
 10
-4.797976
 20
-3.417508
  0
SEQEND
  8
0
  0
POLYLINE
  8
EBENE_1
  6
CONTINUOUS
 66
     1
 40
0.003000
 41
0.003000
  0
VERTEX
  8
EBENE_1
  6
CONTINUOUS
 10
-1.464646
 20
3.232323
  0
VERTEX
  8
EBENE_1
  6
CONTINUOUS
 10
-1.464646
 20
3.316496
  0
SEQEND
  8
0
  0
POLYLINE
  8
EBENE_1
  6
CONTINUOUS
 66
     1
 40
0.003000
 41
0.003000
  0
VERTEX
  8
EBENE_1
  6
CONTINUOUS
 10
-1.464646
 20
-3.417508
  0
VERTEX
  8
EBENE_1
  6
CONTINUOUS
 10
-1.464646
 20
-3.333331
  0
SEQEND
  8
0
  0
POLYLINE
  8
EBENE_1
  6
CONTINUOUS
 66
     1
 40
0.003000
 41
0.003000
  0
VERTEX
  8
EBENE_1
  6
CONTINUOUS
 10
1.767673
 20
3.232323
  0
VERTEX
  8
EBENE_1
  6
CONTINUOUS
 10
1.767673
 20
3.316496
  0
SEQEND
  8
0
  0
POLYLINE
  8
EBENE_1
  6
CONTINUOUS
 66
     1
 40
0.003000
 41
0.003000
  0
VERTEX
  8
EBENE_1
  6
CONTINUOUS
 10
1.767673
 20
-3.417508
  0
VERTEX
  8
EBENE_1
  6
CONTINUOUS
 10
1.767673
 20
-3.333331
  0
SEQEND
  8
0
  0
POLYLINE
  8
EBENE_1
  6
CONTINUOUS
 66
     1
 40
0.003000
 41
0.003000
  0
VERTEX
  8
EBENE_1
  6
CONTINUOUS
 10
4.326610
 20
-3.190240
  0
VERTEX
  8
EBENE_1
  6
CONTINUOUS
 10
4.545453
 20
-3.190240
  0
SEQEND
  8
0
  0
POLYLINE
  8
EBENE_1
  6
CONTINUOUS
 66
     1
 40
0.003000
 41
0.003000
  0
VERTEX
  8
EBENE_1
  6
CONTINUOUS
 10
3.932693
 20
-3.261787
  0
VERTEX
  8
EBENE_1
  6
CONTINUOUS
 10
3.932693
 20
-3.333331
  0
SEQEND
  8
0
  0
POLYLINE
  8
EBENE_1
  6
CONTINUOUS
 66
     1
 40
0.003000
 41
0.003000
  0
VERTEX
  8
EBENE_1
  6
CONTINUOUS
 10
3.932693
 20
-2.403252
  0
VERTEX
  8
EBENE_1
  6
CONTINUOUS
 10
3.932693
 20
-2.510567
  0
SEQEND
  8
0
  0
POLYLINE
  8
EBENE_1
  6
CONTINUOUS
 66
     1
 40
0.003000
 41
0.003000
  0
VERTEX
  8
EBENE_1
  6
CONTINUOUS
 10
2.750945
 20
-2.403252
  0
VERTEX
  8
EBENE_1
  6
CONTINUOUS
 10
2.750945
 20
-3.047154
  0
SEQEND
  8
0
  0
POLYLINE
  8
EBENE_1
  6
CONTINUOUS
 66
     1
 40
0.003000
 41
0.003000
  0
VERTEX
  8
EBENE_1
  6
CONTINUOUS
 10
3.057323
 20
-2.510567
  0
VERTEX
  8
EBENE_1
  6
CONTINUOUS
 10
4.545453
 20
-2.510567
  0
SEQEND
  8
0
  0
POLYLINE
  8
EBENE_1
  6
CONTINUOUS
 66
     1
 40
0.003000
 41
0.003000
  0
VERTEX
  8
EBENE_1
  6
CONTINUOUS
 10
2.313256
 20
-2.975606
  0
VERTEX
  8
EBENE_1
  6
CONTINUOUS
 10
3.057323
 20
-2.975606
  0
SEQEND
  8
0
  0
POLYLINE
  8
EBENE_1
  6
CONTINUOUS
 66
     1
 40
0.003000
 41
0.003000
  0
VERTEX
  8
EBENE_1
  6
CONTINUOUS
 10
2.181953
 20
-2.689429
  0
VERTEX
  8
EBENE_1
  6
CONTINUOUS
 10
2.181953
 20
-3.333331
  0
SEQEND
  8
0
  0
POLYLINE
  8
EBENE_1
  6
CONTINUOUS
 66
     1
 40
0.003000
 41
0.003000
  0
VERTEX
  8
EBENE_1
  6
CONTINUOUS
 10
1.963110
 20
-2.689429
  0
VERTEX
  8
EBENE_1
  6
CONTINUOUS
 10
1.963110
 20
-3.333331
  0
SEQEND
  8
0
  0
POLYLINE
  8
EBENE_1
  6
CONTINUOUS
 66
     1
 40
0.003000
 41
0.003000
  0
VERTEX
  8
EBENE_1
  6
CONTINUOUS
 10
1.525425
 20
-2.689429
  0
VERTEX
  8
EBENE_1
  6
CONTINUOUS
 10
1.525425
 20
-3.333331
  0
SEQEND
  8
0
  0
POLYLINE
  8
EBENE_1
  6
CONTINUOUS
 66
     1
 40
0.003000
 41
0.003000
  0
VERTEX
  8
EBENE_1
  6
CONTINUOUS
 10
2.488331
 20
-2.689429
  0
VERTEX
  8
EBENE_1
  6
CONTINUOUS
 10
2.488331
 20
-2.975606
  0
SEQEND
  8
0
  0
POLYLINE
  8
EBENE_1
  6
CONTINUOUS
 66
     1
 40
0.003000
 41
0.003000
  0
VERTEX
  8
EBENE_1
  6
CONTINUOUS
 10
1.394118
 20
-2.760972
  0
VERTEX
  8
EBENE_1
  6
CONTINUOUS
 10
3.057323
 20
-2.760972
  0
SEQEND
  8
0
  0
POLYLINE
  8
EBENE_1
  6
CONTINUOUS
 66
     1
 40
0.003000
 41
0.003000
  0
VERTEX
  8
EBENE_1
  6
CONTINUOUS
 10
3.057323
 20
-2.832520
  0
VERTEX
  8
EBENE_1
  6
CONTINUOUS
 10
1.394118
 20
-2.832520
  0
SEQEND
  8
0
  0
POLYLINE
  8
EBENE_1
  6
CONTINUOUS
 66
     1
 40
0.003000
 41
0.003000
  0
VERTEX
  8
EBENE_1
  6
CONTINUOUS
 10
1.394118
 20
-2.904063
  0
VERTEX
  8
EBENE_1
  6
CONTINUOUS
 10
3.057323
 20
-2.904063
  0
SEQEND
  8
0
  0
POLYLINE
  8
EBENE_1
  6
CONTINUOUS
 66
     1
 40
0.003000
 41
0.003000
  0
VERTEX
  8
EBENE_1
  6
CONTINUOUS
 10
2.313256
 20
-2.975606
  0
VERTEX
  8
EBENE_1
  6
CONTINUOUS
 10
1.394118
 20
-2.975606
  0
SEQEND
  8
0
  0
POLYLINE
  8
EBENE_1
  6
CONTINUOUS
 66
     1
 40
0.003000
 41
0.003000
  0
VERTEX
  8
EBENE_1
  6
CONTINUOUS
 10
1.394118
 20
-3.047154
  0
VERTEX
  8
EBENE_1
  6
CONTINUOUS
 10
2.313256
 20
-3.047154
  0
SEQEND
  8
0
  0
POLYLINE
  8
EBENE_1
  6
CONTINUOUS
 66
     1
 40
0.003000
 41
0.003000
  0
VERTEX
  8
EBENE_1
  6
CONTINUOUS
 10
2.313256
 20
-3.118697
  0
VERTEX
  8
EBENE_1
  6
CONTINUOUS
 10
1.394118
 20
-3.118697
  0
SEQEND
  8
0
  0
POLYLINE
  8
EBENE_1
  6
CONTINUOUS
 66
     1
 40
0.003000
 41
0.003000
  0
VERTEX
  8
EBENE_1
  6
CONTINUOUS
 10
1.394118
 20
-3.190240
  0
VERTEX
  8
EBENE_1
  6
CONTINUOUS
 10
2.313256
 20
-3.190240
  0
SEQEND
  8
0
  0
TEXT
  8
EBENE_1
 10
2.543465
 20
-2.816945
 40
0.051809
  1
22.05.
 41
1.000000
  7
SN0
 71
     0
 72
     5
 11
2.826549
 21
-2.816945
  0
TEXT
  8
EBENE_1
 10
2.804390
 20
-2.816945
 40
0.051809
  1
Flei.
 41
1.000000
  7
SN0
 71
     0
 72
     5
 11
3.030958
 21
-2.816945
  0
POLYLINE
  8
EBENE_1
  6
CONTINUOUS
 66
     1
 40
0.003000
 41
0.003000
  0
VERTEX
  8
EBENE_1
  6
CONTINUOUS
 10
2.385346
 20
-2.608705
  0
VERTEX
  8
EBENE_1
  6
CONTINUOUS
 10
2.385346
 20
-2.474146
  0
SEQEND
  8
0
  0
POLYLINE
  8
EBENE_1
  6
CONTINUOUS
 66
     1
 40
0.003000
 41
0.003000
  0
VERTEX
  8
EBENE_1
  6
CONTINUOUS
 10
2.385346
 20
-2.474146
  0
VERTEX
  8
EBENE_1
  6
CONTINUOUS
 10
2.478815
 20
-2.474146
  0
SEQEND
  8
0
  0
POLYLINE
  8
EBENE_1
  6
CONTINUOUS
 66
     1
 40
0.003000
 41
0.003000
  0
VERTEX
  8
EBENE_1
  6
CONTINUOUS
 10
2.478815
 20
-2.590957
  0
VERTEX
  8
EBENE_1
  6
CONTINUOUS
 10
2.478815
 20
-2.474146
  0
SEQEND
  8
0
  0
POLYLINE
  8
EBENE_1
  6
CONTINUOUS
 66
     1
 40
0.003000
 41
0.003000
  0
VERTEX
  8
EBENE_1
  6
CONTINUOUS
 10
2.486087
 20
-2.590957
  0
VERTEX
  8
EBENE_1
  6
CONTINUOUS
 10
2.486087
 20
-2.448264
  0
SEQEND
  8
0
  0
POLYLINE
  8
EBENE_1
  6
CONTINUOUS
 66
     1
 40
0.003000
 41
0.003000
  0
VERTEX
  8
EBENE_1
  6
CONTINUOUS
 10
2.486087
 20
-2.448264
  0
VERTEX
  8
EBENE_1
  6
CONTINUOUS
 10
2.578917
 20
-2.448264
  0
SEQEND
  8
0
  0
POLYLINE
  8
EBENE_1
  6
CONTINUOUS
 66
     1
 40
0.003000
 41
0.003000
  0
VERTEX
  8
EBENE_1
  6
CONTINUOUS
 10
2.578917
 20
-2.590957
  0
VERTEX
  8
EBENE_1
  6
CONTINUOUS
 10
2.578917
 20
-2.448264
  0
SEQEND
  8
0
  0
POLYLINE
  8
EBENE_1
  6
CONTINUOUS
 66
     1
 40
0.003000
 41
0.003000
  0
VERTEX
  8
EBENE_1
  6
CONTINUOUS
 10
2.584689
 20
-2.590957
  0
VERTEX
  8
EBENE_1
  6
CONTINUOUS
 10
2.584689
 20
-2.474787
  0
SEQEND
  8
0
  0
POLYLINE
  8
EBENE_1
  6
CONTINUOUS
 66
     1
 40
0.003000
 41
0.003000
  0
VERTEX
  8
EBENE_1
  6
CONTINUOUS
 10
2.584689
 20
-2.474787
  0
VERTEX
  8
EBENE_1
  6
CONTINUOUS
 10
2.678150
 20
-2.474787
  0
SEQEND
  8
0
  0
POLYLINE
  8
EBENE_1
  6
CONTINUOUS
 66
     1
 40
0.003000
 41
0.003000
  0
VERTEX
  8
EBENE_1
  6
CONTINUOUS
 10
2.678150
 20
-2.589815
  0
VERTEX
  8
EBENE_1
  6
CONTINUOUS
 10
2.678150
 20
-2.474787
  0
SEQEND
  8
0
  0
POLYLINE
  8
EBENE_1
  6
CONTINUOUS
 66
     1
 40
0.003000
 41
0.003000
  0
VERTEX
  8
EBENE_1
  6
CONTINUOUS
 10
2.384701
 20
-2.618094
  0
VERTEX
  8
EBENE_1
  6
CONTINUOUS
 10
2.386417
 20
-2.610394
  0
SEQEND
  8
0
  0
POLYLINE
  8
EBENE_1
  6
CONTINUOUS
 66
     1
 40
0.003000
 41
0.003000
  0
VERTEX
  8
EBENE_1
  6
CONTINUOUS
 10
2.386417
 20
-2.610394
  0
VERTEX
  8
EBENE_1
  6
CONTINUOUS
 10
2.389413
 20
-2.603980
  0
SEQEND
  8
0
  0
POLYLINE
  8
EBENE_1
  6
CONTINUOUS
 66
     1
 40
0.003000
 41
0.003000
  0
VERTEX
  8
EBENE_1
  6
CONTINUOUS
 10
2.389413
 20
-2.603980
  0
VERTEX
  8
EBENE_1
  6
CONTINUOUS
 10
2.393260
 20
-2.598626
  0
SEQEND
  8
0
  0
POLYLINE
  8
EBENE_1
  6
CONTINUOUS
 66
     1
 40
0.003000
 41
0.003000
  0
VERTEX
  8
EBENE_1
  6
CONTINUOUS
 10
2.393260
 20
-2.598626
  0
VERTEX
  8
EBENE_1
  6
CONTINUOUS
 10
2.398177
 20
-2.594350
  0
SEQEND
  8
0
  0
POLYLINE
  8
EBENE_1
  6
CONTINUOUS
 66
     1
 40
0.003000
 41
0.003000
  0
VERTEX
  8
EBENE_1
  6
CONTINUOUS
 10
2.398177
 20
-2.594350
  0
VERTEX
  8
EBENE_1
  6
CONTINUOUS
 10
2.403528
 20
-2.591142
  0
SEQEND
  8
0
  0
POLYLINE
  8
EBENE_1
  6
CONTINUOUS
 66
     1
 40
0.003000
 41
0.003000
  0
VERTEX
  8
EBENE_1
  6
CONTINUOUS
 10
2.403528
 20
-2.591142
  0
VERTEX
  8
EBENE_1
  6
CONTINUOUS
 10
2.409516
 20
-2.588795
  0
SEQEND
  8
0
  0
POLYLINE
  8
EBENE_1
  6
CONTINUOUS
 66
     1
 40
0.003000
 41
0.003000
  0
VERTEX
  8
EBENE_1
  6
CONTINUOUS
 10
2.409516
 20
-2.588795
  0
VERTEX
  8
EBENE_1
  6
CONTINUOUS
 10
2.415717
 20
-2.587079
  0
SEQEND
  8
0
  0
POLYLINE
  8
EBENE_1
  6
CONTINUOUS
 66
     1
 40
0.003000
 41
0.003000
  0
VERTEX
  8
EBENE_1
  6
CONTINUOUS
 10
2.415717
 20
-2.587079
  0
VERTEX
  8
EBENE_1
  6
CONTINUOUS
 10
2.422350
 20
-2.586228
  0
SEQEND
  8
0
  0
POLYLINE
  8
EBENE_1
  6
CONTINUOUS
 66
     1
 40
0.003000
 41
0.003000
  0
VERTEX
  8
EBENE_1
  6
CONTINUOUS
 10
2.422350
 20
-2.586228
  0
VERTEX
  8
EBENE_1
  6
CONTINUOUS
 10
2.428764
 20
-2.585799
  0
SEQEND
  8
0
  0
POLYLINE
  8
EBENE_1
  6
CONTINUOUS
 66
     1
 40
0.003000
 41
0.003000
  0
VERTEX
  8
EBENE_1
  6
CONTINUOUS
 10
2.428764
 20
-2.585799
  0
VERTEX
  8
EBENE_1
  6
CONTINUOUS
 10
2.434969
 20
-2.586008
  0
SEQEND
  8
0
  0
POLYLINE
  8
EBENE_1
  6
CONTINUOUS
 66
     1
 40
0.003000
 41
0.003000
  0
VERTEX
  8
EBENE_1
  6
CONTINUOUS
 10
2.434969
 20
-2.586008
  0
VERTEX
  8
EBENE_1
  6
CONTINUOUS
 10
2.440953
 20
-2.586437
  0
SEQEND
  8
0
  0
POLYLINE
  8
EBENE_1
  6
CONTINUOUS
 66
     1
 40
0.003000
 41
0.003000
  0
VERTEX
  8
EBENE_1
  6
CONTINUOUS
 10
2.440953
 20
-2.586437
  0
VERTEX
  8
EBENE_1
  6
CONTINUOUS
 10
2.446516
 20
-2.587295
  0
SEQEND
  8
0
  0
POLYLINE
  8
EBENE_1
  6
CONTINUOUS
 66
     1
 40
0.003000
 41
0.003000
  0
VERTEX
  8
EBENE_1
  6
CONTINUOUS
 10
2.446516
 20
-2.587295
  0
VERTEX
  8
EBENE_1
  6
CONTINUOUS
 10
2.451433
 20
-2.588366
  0
SEQEND
  8
0
  0
POLYLINE
  8
EBENE_1
  6
CONTINUOUS
 66
     1
 40
0.003000
 41
0.003000
  0
VERTEX
  8
EBENE_1
  6
CONTINUOUS
 10
2.451433
 20
-2.588366
  0
VERTEX
  8
EBENE_1
  6
CONTINUOUS
 10
2.455500
 20
-2.589433
  0
SEQEND
  8
0
  0
POLYLINE
  8
EBENE_1
  6
CONTINUOUS
 66
     1
 40
0.003000
 41
0.003000
  0
VERTEX
  8
EBENE_1
  6
CONTINUOUS
 10
2.455500
 20
-2.589433
  0
VERTEX
  8
EBENE_1
  6
CONTINUOUS
 10
2.458496
 20
-2.590504
  0
SEQEND
  8
0
  0
POLYLINE
  8
EBENE_1
  6
CONTINUOUS
 66
     1
 40
0.003000
 41
0.003000
  0
VERTEX
  8
EBENE_1
  6
CONTINUOUS
 10
2.458496
 20
-2.590504
  0
VERTEX
  8
EBENE_1
  6
CONTINUOUS
 10
2.460421
 20
-2.591571
  0
SEQEND
  8
0
  0
POLYLINE
  8
EBENE_1
  6
CONTINUOUS
 66
     1
 40
0.003000
 41
0.003000
  0
VERTEX
  8
EBENE_1
  6
CONTINUOUS
 10
2.460421
 20
-2.591571
  0
VERTEX
  8
EBENE_1
  6
CONTINUOUS
 10
2.460421
 20
-2.611890
  0
SEQEND
  8
0
  0
POLYLINE
  8
EBENE_1
  6
CONTINUOUS
 66
     1
 40
0.003000
 41
0.003000
  0
VERTEX
  8
EBENE_1
  6
CONTINUOUS
 10
2.460421
 20
-2.611890
  0
VERTEX
  8
EBENE_1
  6
CONTINUOUS
 10
2.458925
 20
-2.611031
  0
SEQEND
  8
0
  0
POLYLINE
  8
EBENE_1
  6
CONTINUOUS
 66
     1
 40
0.003000
 41
0.003000
  0
VERTEX
  8
EBENE_1
  6
CONTINUOUS
 10
2.458925
 20
-2.611031
  0
VERTEX
  8
EBENE_1
  6
CONTINUOUS
 10
2.456787
 20
-2.609965
  0
SEQEND
  8
0
  0
POLYLINE
  8
EBENE_1
  6
CONTINUOUS
 66
     1
 40
0.003000
 41
0.003000
  0
VERTEX
  8
EBENE_1
  6
CONTINUOUS
 10
2.456787
 20
-2.609965
  0
VERTEX
  8
EBENE_1
  6
CONTINUOUS
 10
2.454429
 20
-2.608894
  0
SEQEND
  8
0
  0
POLYLINE
  8
EBENE_1
  6
CONTINUOUS
 66
     1
 40
0.003000
 41
0.003000
  0
VERTEX
  8
EBENE_1
  6
CONTINUOUS
 10
2.454429
 20
-2.608894
  0
VERTEX
  8
EBENE_1
  6
CONTINUOUS
 10
2.451433
 20
-2.607614
  0
SEQEND
  8
0
  0
POLYLINE
  8
EBENE_1
  6
CONTINUOUS
 66
     1
 40
0.003000
 41
0.003000
  0
VERTEX
  8
EBENE_1
  6
CONTINUOUS
 10
2.451433
 20
-2.607614
  0
VERTEX
  8
EBENE_1
  6
CONTINUOUS
 10
2.448445
 20
-2.606547
  0
SEQEND
  8
0
  0
POLYLINE
  8
EBENE_1
  6
CONTINUOUS
 66
     1
 40
0.003000
 41
0.003000
  0
VERTEX
  8
EBENE_1
  6
CONTINUOUS
 10
2.448445
 20
-2.606547
  0
VERTEX
  8
EBENE_1
  6
CONTINUOUS
 10
2.445020
 20
-2.605476
  0
SEQEND
  8
0
  0
POLYLINE
  8
EBENE_1
  6
CONTINUOUS
 66
     1
 40
0.003000
 41
0.003000
  0
VERTEX
  8
EBENE_1
  6
CONTINUOUS
 10
2.445020
 20
-2.605476
  0
VERTEX
  8
EBENE_1
  6
CONTINUOUS
 10
2.441382
 20
-2.604831
  0
SEQEND
  8
0
  0
POLYLINE
  8
EBENE_1
  6
CONTINUOUS
 66
     1
 40
0.003000
 41
0.003000
  0
VERTEX
  8
EBENE_1
  6
CONTINUOUS
 10
2.441382
 20
-2.604831
  0
VERTEX
  8
EBENE_1
  6
CONTINUOUS
 10
2.437748
 20
-2.604189
  0
SEQEND
  8
0
  0
POLYLINE
  8
EBENE_1
  6
CONTINUOUS
 66
     1
 40
0.003000
 41
0.003000
  0
VERTEX
  8
EBENE_1
  6
CONTINUOUS
 10
2.437748
 20
-2.604189
  0
VERTEX
  8
EBENE_1
  6
CONTINUOUS
 10
2.434110
 20
-2.603980
  0
SEQEND
  8
0
  0
POLYLINE
  8
EBENE_1
  6
CONTINUOUS
 66
     1
 40
0.003000
 41
0.003000
  0
VERTEX
  8
EBENE_1
  6
CONTINUOUS
 10
2.434110
 20
-2.603980
  0
VERTEX
  8
EBENE_1
  6
CONTINUOUS
 10
2.430472
 20
-2.604189
  0
SEQEND
  8
0
  0
POLYLINE
  8
EBENE_1
  6
CONTINUOUS
 66
     1
 40
0.003000
 41
0.003000
  0
VERTEX
  8
EBENE_1
  6
CONTINUOUS
 10
2.430472
 20
-2.604189
  0
VERTEX
  8
EBENE_1
  6
CONTINUOUS
 10
2.427055
 20
-2.604831
  0
SEQEND
  8
0
  0
POLYLINE
  8
EBENE_1
  6
CONTINUOUS
 66
     1
 40
0.003000
 41
0.003000
  0
VERTEX
  8
EBENE_1
  6
CONTINUOUS
 10
2.427055
 20
-2.604831
  0
VERTEX
  8
EBENE_1
  6
CONTINUOUS
 10
2.423630
 20
-2.606118
  0
SEQEND
  8
0
  0
POLYLINE
  8
EBENE_1
  6
CONTINUOUS
 66
     1
 40
0.003000
 41
0.003000
  0
VERTEX
  8
EBENE_1
  6
CONTINUOUS
 10
2.423630
 20
-2.606118
  0
VERTEX
  8
EBENE_1
  6
CONTINUOUS
 10
2.420634
 20
-2.607827
  0
SEQEND
  8
0
  0
POLYLINE
  8
EBENE_1
  6
CONTINUOUS
 66
     1
 40
0.003000
 41
0.003000
  0
VERTEX
  8
EBENE_1
  6
CONTINUOUS
 10
2.420634
 20
-2.607827
  0
VERTEX
  8
EBENE_1
  6
CONTINUOUS
 10
2.417854
 20
-2.610394
  0
SEQEND
  8
0
  0
POLYLINE
  8
EBENE_1
  6
CONTINUOUS
 66
     1
 40
0.003000
 41
0.003000
  0
VERTEX
  8
EBENE_1
  6
CONTINUOUS
 10
2.417854
 20
-2.610394
  0
VERTEX
  8
EBENE_1
  6
CONTINUOUS
 10
2.415717
 20
-2.613819
  0
SEQEND
  8
0
  0
POLYLINE
  8
EBENE_1
  6
CONTINUOUS
 66
     1
 40
0.003000
 41
0.003000
  0
VERTEX
  8
EBENE_1
  6
CONTINUOUS
 10
2.415717
 20
-2.613819
  0
VERTEX
  8
EBENE_1
  6
CONTINUOUS
 10
2.413685
 20
-2.618094
  0
SEQEND
  8
0
  0
POLYLINE
  8
EBENE_1
  6
CONTINUOUS
 66
     1
 40
0.003000
 41
0.003000
  0
VERTEX
  8
EBENE_1
  6
CONTINUOUS
 10
2.413685
 20
-2.618094
  0
VERTEX
  8
EBENE_1
  6
CONTINUOUS
 10
2.384701
 20
-2.618094
  0
SEQEND
  8
0
  0
POLYLINE
  8
EBENE_1
  6
CONTINUOUS
 66
     1
 40
0.003000
 41
0.003000
  0
VERTEX
  8
EBENE_1
  6
CONTINUOUS
 10
2.384701
 20
-2.622583
  0
VERTEX
  8
EBENE_1
  6
CONTINUOUS
 10
2.414650
 20
-2.622583
  0
SEQEND
  8
0
  0
POLYLINE
  8
EBENE_1
  6
CONTINUOUS
 66
     1
 40
0.003000
 41
0.003000
  0
VERTEX
  8
EBENE_1
  6
CONTINUOUS
 10
2.414650
 20
-2.622583
  0
VERTEX
  8
EBENE_1
  6
CONTINUOUS
 10
2.415929
 20
-2.626217
  0
SEQEND
  8
0
  0
POLYLINE
  8
EBENE_1
  6
CONTINUOUS
 66
     1
 40
0.003000
 41
0.003000
  0
VERTEX
  8
EBENE_1
  6
CONTINUOUS
 10
2.415929
 20
-2.626217
  0
VERTEX
  8
EBENE_1
  6
CONTINUOUS
 10
2.417646
 20
-2.629217
  0
SEQEND
  8
0
  0
POLYLINE
  8
EBENE_1
  6
CONTINUOUS
 66
     1
 40
0.003000
 41
0.003000
  0
VERTEX
  8
EBENE_1
  6
CONTINUOUS
 10
2.417646
 20
-2.629217
  0
VERTEX
  8
EBENE_1
  6
CONTINUOUS
 10
2.419783
 20
-2.631571
  0
SEQEND
  8
0
  0
POLYLINE
  8
EBENE_1
  6
CONTINUOUS
 66
     1
 40
0.003000
 41
0.003000
  0
VERTEX
  8
EBENE_1
  6
CONTINUOUS
 10
2.419783
 20
-2.631571
  0
VERTEX
  8
EBENE_1
  6
CONTINUOUS
 10
2.422563
 20
-2.633492
  0
SEQEND
  8
0
  0
POLYLINE
  8
EBENE_1
  6
CONTINUOUS
 66
     1
 40
0.003000
 41
0.003000
  0
VERTEX
  8
EBENE_1
  6
CONTINUOUS
 10
2.422563
 20
-2.633492
  0
VERTEX
  8
EBENE_1
  6
CONTINUOUS
 10
2.425559
 20
-2.634780
  0
SEQEND
  8
0
  0
POLYLINE
  8
EBENE_1
  6
CONTINUOUS
 66
     1
 40
0.003000
 41
0.003000
  0
VERTEX
  8
EBENE_1
  6
CONTINUOUS
 10
2.425559
 20
-2.634780
  0
VERTEX
  8
EBENE_1
  6
CONTINUOUS
 10
2.428976
 20
-2.635846
  0
SEQEND
  8
0
  0
POLYLINE
  8
EBENE_1
  6
CONTINUOUS
 66
     1
 40
0.003000
 41
0.003000
  0
VERTEX
  8
EBENE_1
  6
CONTINUOUS
 10
2.428976
 20
-2.635846
  0
VERTEX
  8
EBENE_1
  6
CONTINUOUS
 10
2.432402
 20
-2.636276
  0
SEQEND
  8
0
  0
POLYLINE
  8
EBENE_1
  6
CONTINUOUS
 66
     1
 40
0.003000
 41
0.003000
  0
VERTEX
  8
EBENE_1
  6
CONTINUOUS
 10
2.432402
 20
-2.636276
  0
VERTEX
  8
EBENE_1
  6
CONTINUOUS
 10
2.436039
 20
-2.636488
  0
SEQEND
  8
0
  0
POLYLINE
  8
EBENE_1
  6
CONTINUOUS
 66
     1
 40
0.003000
 41
0.003000
  0
VERTEX
  8
EBENE_1
  6
CONTINUOUS
 10
2.436039
 20
-2.636488
  0
VERTEX
  8
EBENE_1
  6
CONTINUOUS
 10
2.439673
 20
-2.636276
  0
SEQEND
  8
0
  0
POLYLINE
  8
EBENE_1
  6
CONTINUOUS
 66
     1
 40
0.003000
 41
0.003000
  0
VERTEX
  8
EBENE_1
  6
CONTINUOUS
 10
2.439673
 20
-2.636276
  0
VERTEX
  8
EBENE_1
  6
CONTINUOUS
 10
2.443520
 20
-2.635846
  0
SEQEND
  8
0
  0
POLYLINE
  8
EBENE_1
  6
CONTINUOUS
 66
     1
 40
0.003000
 41
0.003000
  0
VERTEX
  8
EBENE_1
  6
CONTINUOUS
 10
2.443520
 20
-2.635846
  0
VERTEX
  8
EBENE_1
  6
CONTINUOUS
 10
2.446945
 20
-2.635209
  0
SEQEND
  8
0
  0
POLYLINE
  8
EBENE_1
  6
CONTINUOUS
 66
     1
 40
0.003000
 41
0.003000
  0
VERTEX
  8
EBENE_1
  6
CONTINUOUS
 10
2.446945
 20
-2.635209
  0
VERTEX
  8
EBENE_1
  6
CONTINUOUS
 10
2.450366
 20
-2.634350
  0
SEQEND
  8
0
  0
POLYLINE
  8
EBENE_1
  6
CONTINUOUS
 66
     1
 40
0.003000
 41
0.003000
  0
VERTEX
  8
EBENE_1
  6
CONTINUOUS
 10
2.450366
 20
-2.634350
  0
VERTEX
  8
EBENE_1
  6
CONTINUOUS
 10
2.453579
 20
-2.633280
  0
SEQEND
  8
0
  0
POLYLINE
  8
EBENE_1
  6
CONTINUOUS
 66
     1
 40
0.003000
 41
0.003000
  0
VERTEX
  8
EBENE_1
  6
CONTINUOUS
 10
2.453579
 20
-2.633280
  0
VERTEX
  8
EBENE_1
  6
CONTINUOUS
 10
2.456358
 20
-2.632213
  0
SEQEND
  8
0
  0
POLYLINE
  8
EBENE_1
  6
CONTINUOUS
 66
     1
 40
0.003000
 41
0.003000
  0
VERTEX
  8
EBENE_1
  6
CONTINUOUS
 10
2.456358
 20
-2.632213
  0
VERTEX
  8
EBENE_1
  6
CONTINUOUS
 10
2.458925
 20
-2.630925
  0
SEQEND
  8
0
  0
POLYLINE
  8
EBENE_1
  6
CONTINUOUS
 66
     1
 40
0.003000
 41
0.003000
  0
VERTEX
  8
EBENE_1
  6
CONTINUOUS
 10
2.458925
 20
-2.630925
  0
VERTEX
  8
EBENE_1
  6
CONTINUOUS
 10
2.460843
 20
-2.629646
  0
SEQEND
  8
0
  0
POLYLINE
  8
EBENE_1
  6
CONTINUOUS
 66
     1
 40
0.003000
 41
0.003000
  0
VERTEX
  8
EBENE_1
  6
CONTINUOUS
 10
2.460843
 20
-2.629646
  0
VERTEX
  8
EBENE_1
  6
CONTINUOUS
 10
2.460843
 20
-2.649744
  0
SEQEND
  8
0
  0
POLYLINE
  8
EBENE_1
  6
CONTINUOUS
 66
     1
 40
0.003000
 41
0.003000
  0
VERTEX
  8
EBENE_1
  6
CONTINUOUS
 10
2.460843
 20
-2.649744
  0
VERTEX
  8
EBENE_1
  6
CONTINUOUS
 10
2.451433
 20
-2.652311
  0
SEQEND
  8
0
  0
POLYLINE
  8
EBENE_1
  6
CONTINUOUS
 66
     1
 40
0.003000
 41
0.003000
  0
VERTEX
  8
EBENE_1
  6
CONTINUOUS
 10
2.451433
 20
-2.652311
  0
VERTEX
  8
EBENE_1
  6
CONTINUOUS
 10
2.442453
 20
-2.654031
  0
SEQEND
  8
0
  0
POLYLINE
  8
EBENE_1
  6
CONTINUOUS
 66
     1
 40
0.003000
 41
0.003000
  0
VERTEX
  8
EBENE_1
  6
CONTINUOUS
 10
2.442453
 20
-2.654031
  0
VERTEX
  8
EBENE_1
  6
CONTINUOUS
 10
2.434331
 20
-2.654669
  0
SEQEND
  8
0
  0
POLYLINE
  8
EBENE_1
  6
CONTINUOUS
 66
     1
 40
0.003000
 41
0.003000
  0
VERTEX
  8
EBENE_1
  6
CONTINUOUS
 10
2.434331
 20
-2.654669
  0
VERTEX
  8
EBENE_1
  6
CONTINUOUS
 10
2.426839
 20
-2.654878
  0
SEQEND
  8
0
  0
POLYLINE
  8
EBENE_1
  6
CONTINUOUS
 66
     1
 40
0.003000
 41
0.003000
  0
VERTEX
  8
EBENE_1
  6
CONTINUOUS
 10
2.426839
 20
-2.654878
  0
VERTEX
  8
EBENE_1
  6
CONTINUOUS
 10
2.420213
 20
-2.654240
  0
SEQEND
  8
0
  0
POLYLINE
  8
EBENE_1
  6
CONTINUOUS
 66
     1
 40
0.003000
 41
0.003000
  0
VERTEX
  8
EBENE_1
  6
CONTINUOUS
 10
2.420213
 20
-2.654240
  0
VERTEX
  8
EBENE_1
  6
CONTINUOUS
 10
2.414008
 20
-2.652961
  0
SEQEND
  8
0
  0
POLYLINE
  8
EBENE_1
  6
CONTINUOUS
 66
     1
 40
0.003000
 41
0.003000
  0
VERTEX
  8
EBENE_1
  6
CONTINUOUS
 10
2.414008
 20
-2.652961
  0
VERTEX
  8
EBENE_1
  6
CONTINUOUS
 10
2.408445
 20
-2.651244
  0
SEQEND
  8
0
  0
POLYLINE
  8
EBENE_1
  6
CONTINUOUS
 66
     1
 40
0.003000
 41
0.003000
  0
VERTEX
  8
EBENE_1
  6
CONTINUOUS
 10
2.408445
 20
-2.651244
  0
VERTEX
  8
EBENE_1
  6
CONTINUOUS
 10
2.403528
 20
-2.648894
  0
SEQEND
  8
0
  0
POLYLINE
  8
EBENE_1
  6
CONTINUOUS
 66
     1
 40
0.003000
 41
0.003000
  0
VERTEX
  8
EBENE_1
  6
CONTINUOUS
 10
2.403528
 20
-2.648894
  0
VERTEX
  8
EBENE_1
  6
CONTINUOUS
 10
2.399244
 20
-2.646327
  0
SEQEND
  8
0
  0
POLYLINE
  8
EBENE_1
  6
CONTINUOUS
 66
     1
 40
0.003000
 41
0.003000
  0
VERTEX
  8
EBENE_1
  6
CONTINUOUS
 10
2.399244
 20
-2.646327
  0
VERTEX
  8
EBENE_1
  6
CONTINUOUS
 10
2.395398
 20
-2.643331
  0
SEQEND
  8
0
  0
POLYLINE
  8
EBENE_1
  6
CONTINUOUS
 66
     1
 40
0.003000
 41
0.003000
  0
VERTEX
  8
EBENE_1
  6
CONTINUOUS
 10
2.395398
 20
-2.643331
  0
VERTEX
  8
EBENE_1
  6
CONTINUOUS
 10
2.392402
 20
-2.640122
  0
SEQEND
  8
0
  0
POLYLINE
  8
EBENE_1
  6
CONTINUOUS
 66
     1
 40
0.003000
 41
0.003000
  0
VERTEX
  8
EBENE_1
  6
CONTINUOUS
 10
2.392402
 20
-2.640122
  0
VERTEX
  8
EBENE_1
  6
CONTINUOUS
 10
2.389835
 20
-2.636697
  0
SEQEND
  8
0
  0
POLYLINE
  8
EBENE_1
  6
CONTINUOUS
 66
     1
 40
0.003000
 41
0.003000
  0
VERTEX
  8
EBENE_1
  6
CONTINUOUS
 10
2.389835
 20
-2.636697
  0
VERTEX
  8
EBENE_1
  6
CONTINUOUS
 10
2.387697
 20
-2.633280
  0
SEQEND
  8
0
  0
POLYLINE
  8
EBENE_1
  6
CONTINUOUS
 66
     1
 40
0.003000
 41
0.003000
  0
VERTEX
  8
EBENE_1
  6
CONTINUOUS
 10
2.387697
 20
-2.633280
  0
VERTEX
  8
EBENE_1
  6
CONTINUOUS
 10
2.386197
 20
-2.629646
  0
SEQEND
  8
0
  0
POLYLINE
  8
EBENE_1
  6
CONTINUOUS
 66
     1
 40
0.003000
 41
0.003000
  0
VERTEX
  8
EBENE_1
  6
CONTINUOUS
 10
2.386197
 20
-2.629646
  0
VERTEX
  8
EBENE_1
  6
CONTINUOUS
 10
2.385130
 20
-2.626008
  0
SEQEND
  8
0
  0
POLYLINE
  8
EBENE_1
  6
CONTINUOUS
 66
     1
 40
0.003000
 41
0.003000
  0
VERTEX
  8
EBENE_1
  6
CONTINUOUS
 10
2.385130
 20
-2.626008
  0
VERTEX
  8
EBENE_1
  6
CONTINUOUS
 10
2.384701
 20
-2.622583
  0
SEQEND
  8
0
  0
POLYLINE
  8
EBENE_1
  6
CONTINUOUS
 66
     1
 40
0.003000
 41
0.003000
  0
VERTEX
  8
EBENE_1
  6
CONTINUOUS
 10
2.460421
 20
-2.592429
  0
VERTEX
  8
EBENE_1
  6
CONTINUOUS
 10
2.484449
 20
-2.592429
  0
SEQEND
  8
0
  0
POLYLINE
  8
EBENE_1
  6
CONTINUOUS
 66
     1
 40
0.003000
 41
0.003000
  0
VERTEX
  8
EBENE_1
  6
CONTINUOUS
 10
2.484449
 20
-2.592429
  0
VERTEX
  8
EBENE_1
  6
CONTINUOUS
 10
2.490575
 20
-2.601622
  0
SEQEND
  8
0
  0
POLYLINE
  8
EBENE_1
  6
CONTINUOUS
 66
     1
 40
0.003000
 41
0.003000
  0
VERTEX
  8
EBENE_1
  6
CONTINUOUS
 10
2.490575
 20
-2.601622
  0
VERTEX
  8
EBENE_1
  6
CONTINUOUS
 10
2.496709
 20
-2.592429
  0
SEQEND
  8
0
  0
POLYLINE
  8
EBENE_1
  6
CONTINUOUS
 66
     1
 40
0.003000
 41
0.003000
  0
VERTEX
  8
EBENE_1
  6
CONTINUOUS
 10
2.496709
 20
-2.592429
  0
VERTEX
  8
EBENE_1
  6
CONTINUOUS
 10
2.521972
 20
-2.592429
  0
SEQEND
  8
0
  0
POLYLINE
  8
EBENE_1
  6
CONTINUOUS
 66
     1
 40
0.003000
 41
0.003000
  0
VERTEX
  8
EBENE_1
  6
CONTINUOUS
 10
2.521972
 20
-2.592429
  0
VERTEX
  8
EBENE_1
  6
CONTINUOUS
 10
2.500634
 20
-2.618945
  0
SEQEND
  8
0
  0
POLYLINE
  8
EBENE_1
  6
CONTINUOUS
 66
     1
 40
0.003000
 41
0.003000
  0
VERTEX
  8
EBENE_1
  6
CONTINUOUS
 10
2.500634
 20
-2.618945
  0
VERTEX
  8
EBENE_1
  6
CONTINUOUS
 10
2.481382
 20
-2.618945
  0
SEQEND
  8
0
  0
POLYLINE
  8
EBENE_1
  6
CONTINUOUS
 66
     1
 40
0.003000
 41
0.003000
  0
VERTEX
  8
EBENE_1
  6
CONTINUOUS
 10
2.481382
 20
-2.618945
  0
VERTEX
  8
EBENE_1
  6
CONTINUOUS
 10
2.460421
 20
-2.592850
  0
SEQEND
  8
0
  0
POLYLINE
  8
EBENE_1
  6
CONTINUOUS
 66
     1
 40
0.003000
 41
0.003000
  0
VERTEX
  8
EBENE_1
  6
CONTINUOUS
 10
2.460421
 20
-2.592642
  0
VERTEX
  8
EBENE_1
  6
CONTINUOUS
 10
2.460421
 20
-2.592429
  0
SEQEND
  8
0
  0
POLYLINE
  8
EBENE_1
  6
CONTINUOUS
 66
     1
 40
0.003000
 41
0.003000
  0
VERTEX
  8
EBENE_1
  6
CONTINUOUS
 10
2.481382
 20
-2.622370
  0
VERTEX
  8
EBENE_1
  6
CONTINUOUS
 10
2.500413
 20
-2.622370
  0
SEQEND
  8
0
  0
POLYLINE
  8
EBENE_1
  6
CONTINUOUS
 66
     1
 40
0.003000
 41
0.003000
  0
VERTEX
  8
EBENE_1
  6
CONTINUOUS
 10
2.500413
 20
-2.622370
  0
VERTEX
  8
EBENE_1
  6
CONTINUOUS
 10
2.500413
 20
-2.633709
  0
SEQEND
  8
0
  0
POLYLINE
  8
EBENE_1
  6
CONTINUOUS
 66
     1
 40
0.003000
 41
0.003000
  0
VERTEX
  8
EBENE_1
  6
CONTINUOUS
 10
2.500413
 20
-2.633709
  0
VERTEX
  8
EBENE_1
  6
CONTINUOUS
 10
2.481382
 20
-2.633709
  0
SEQEND
  8
0
  0
POLYLINE
  8
EBENE_1
  6
CONTINUOUS
 66
     1
 40
0.003000
 41
0.003000
  0
VERTEX
  8
EBENE_1
  6
CONTINUOUS
 10
2.481382
 20
-2.633709
  0
VERTEX
  8
EBENE_1
  6
CONTINUOUS
 10
2.481382
 20
-2.622370
  0
SEQEND
  8
0
  0
POLYLINE
  8
EBENE_1
  6
CONTINUOUS
 66
     1
 40
0.003000
 41
0.003000
  0
VERTEX
  8
EBENE_1
  6
CONTINUOUS
 10
2.525012
 20
-2.622370
  0
VERTEX
  8
EBENE_1
  6
CONTINUOUS
 10
2.544051
 20
-2.622370
  0
SEQEND
  8
0
  0
POLYLINE
  8
EBENE_1
  6
CONTINUOUS
 66
     1
 40
0.003000
 41
0.003000
  0
VERTEX
  8
EBENE_1
  6
CONTINUOUS
 10
2.544051
 20
-2.622370
  0
VERTEX
  8
EBENE_1
  6
CONTINUOUS
 10
2.544051
 20
-2.633709
  0
SEQEND
  8
0
  0
POLYLINE
  8
EBENE_1
  6
CONTINUOUS
 66
     1
 40
0.003000
 41
0.003000
  0
VERTEX
  8
EBENE_1
  6
CONTINUOUS
 10
2.544051
 20
-2.633709
  0
VERTEX
  8
EBENE_1
  6
CONTINUOUS
 10
2.525012
 20
-2.633709
  0
SEQEND
  8
0
  0
POLYLINE
  8
EBENE_1
  6
CONTINUOUS
 66
     1
 40
0.003000
 41
0.003000
  0
VERTEX
  8
EBENE_1
  6
CONTINUOUS
 10
2.525012
 20
-2.633709
  0
VERTEX
  8
EBENE_1
  6
CONTINUOUS
 10
2.525012
 20
-2.622370
  0
SEQEND
  8
0
  0
POLYLINE
  8
EBENE_1
  6
CONTINUOUS
 66
     1
 40
0.003000
 41
0.003000
  0
VERTEX
  8
EBENE_1
  6
CONTINUOUS
 10
2.512508
 20
-2.604189
  0
VERTEX
  8
EBENE_1
  6
CONTINUOUS
 10
2.521972
 20
-2.592429
  0
SEQEND
  8
0
  0
POLYLINE
  8
EBENE_1
  6
CONTINUOUS
 66
     1
 40
0.003000
 41
0.003000
  0
VERTEX
  8
EBENE_1
  6
CONTINUOUS
 10
2.556890
 20
-2.592429
  0
VERTEX
  8
EBENE_1
  6
CONTINUOUS
 10
2.521972
 20
-2.592429
  0
SEQEND
  8
0
  0
POLYLINE
  8
EBENE_1
  6
CONTINUOUS
 66
     1
 40
0.003000
 41
0.003000
  0
VERTEX
  8
EBENE_1
  6
CONTINUOUS
 10
2.556890
 20
-2.592429
  0
VERTEX
  8
EBENE_1
  6
CONTINUOUS
 10
2.556890
 20
-2.604189
  0
SEQEND
  8
0
  0
POLYLINE
  8
EBENE_1
  6
CONTINUOUS
 66
     1
 40
0.003000
 41
0.003000
  0
VERTEX
  8
EBENE_1
  6
CONTINUOUS
 10
2.556890
 20
-2.604189
  0
VERTEX
  8
EBENE_1
  6
CONTINUOUS
 10
2.544051
 20
-2.604189
  0
SEQEND
  8
0
  0
POLYLINE
  8
EBENE_1
  6
CONTINUOUS
 66
     1
 40
0.003000
 41
0.003000
  0
VERTEX
  8
EBENE_1
  6
CONTINUOUS
 10
2.544051
 20
-2.604189
  0
VERTEX
  8
EBENE_1
  6
CONTINUOUS
 10
2.544051
 20
-2.618094
  0
SEQEND
  8
0
  0
POLYLINE
  8
EBENE_1
  6
CONTINUOUS
 66
     1
 40
0.003000
 41
0.003000
  0
VERTEX
  8
EBENE_1
  6
CONTINUOUS
 10
2.544051
 20
-2.618094
  0
VERTEX
  8
EBENE_1
  6
CONTINUOUS
 10
2.525012
 20
-2.618094
  0
SEQEND
  8
0
  0
POLYLINE
  8
EBENE_1
  6
CONTINUOUS
 66
     1
 40
0.003000
 41
0.003000
  0
VERTEX
  8
EBENE_1
  6
CONTINUOUS
 10
2.525012
 20
-2.618094
  0
VERTEX
  8
EBENE_1
  6
CONTINUOUS
 10
2.525012
 20
-2.604189
  0
SEQEND
  8
0
  0
POLYLINE
  8
EBENE_1
  6
CONTINUOUS
 66
     1
 40
0.003000
 41
0.003000
  0
VERTEX
  8
EBENE_1
  6
CONTINUOUS
 10
2.525012
 20
-2.604189
  0
VERTEX
  8
EBENE_1
  6
CONTINUOUS
 10
2.512937
 20
-2.604189
  0
SEQEND
  8
0
  0
POLYLINE
  8
EBENE_1
  6
CONTINUOUS
 66
     1
 40
0.003000
 41
0.003000
  0
VERTEX
  8
EBENE_1
  6
CONTINUOUS
 10
2.512937
 20
-2.604189
  0
VERTEX
  8
EBENE_1
  6
CONTINUOUS
 10
2.512508
 20
-2.604189
  0
SEQEND
  8
0
  0
POLYLINE
  8
EBENE_1
  6
CONTINUOUS
 66
     1
 40
0.003000
 41
0.003000
  0
VERTEX
  8
EBENE_1
  6
CONTINUOUS
 10
2.560732
 20
-2.592429
  0
VERTEX
  8
EBENE_1
  6
CONTINUOUS
 10
2.598807
 20
-2.592429
  0
SEQEND
  8
0
  0
POLYLINE
  8
EBENE_1
  6
CONTINUOUS
 66
     1
 40
0.003000
 41
0.003000
  0
VERTEX
  8
EBENE_1
  6
CONTINUOUS
 10
2.598807
 20
-2.592429
  0
VERTEX
  8
EBENE_1
  6
CONTINUOUS
 10
2.598807
 20
-2.602693
  0
SEQEND
  8
0
  0
POLYLINE
  8
EBENE_1
  6
CONTINUOUS
 66
     1
 40
0.003000
 41
0.003000
  0
VERTEX
  8
EBENE_1
  6
CONTINUOUS
 10
2.598807
 20
-2.602693
  0
VERTEX
  8
EBENE_1
  6
CONTINUOUS
 10
2.579346
 20
-2.602693
  0
SEQEND
  8
0
  0
POLYLINE
  8
EBENE_1
  6
CONTINUOUS
 66
     1
 40
0.003000
 41
0.003000
  0
VERTEX
  8
EBENE_1
  6
CONTINUOUS
 10
2.579346
 20
-2.602693
  0
VERTEX
  8
EBENE_1
  6
CONTINUOUS
 10
2.579346
 20
-2.610181
  0
SEQEND
  8
0
  0
POLYLINE
  8
EBENE_1
  6
CONTINUOUS
 66
     1
 40
0.003000
 41
0.003000
  0
VERTEX
  8
EBENE_1
  6
CONTINUOUS
 10
2.579346
 20
-2.610181
  0
VERTEX
  8
EBENE_1
  6
CONTINUOUS
 10
2.598807
 20
-2.610181
  0
SEQEND
  8
0
  0
POLYLINE
  8
EBENE_1
  6
CONTINUOUS
 66
     1
 40
0.003000
 41
0.003000
  0
VERTEX
  8
EBENE_1
  6
CONTINUOUS
 10
2.598807
 20
-2.610181
  0
VERTEX
  8
EBENE_1
  6
CONTINUOUS
 10
2.598807
 20
-2.618524
  0
SEQEND
  8
0
  0
POLYLINE
  8
EBENE_1
  6
CONTINUOUS
 66
     1
 40
0.003000
 41
0.003000
  0
VERTEX
  8
EBENE_1
  6
CONTINUOUS
 10
2.598807
 20
-2.618524
  0
VERTEX
  8
EBENE_1
  6
CONTINUOUS
 10
2.560736
 20
-2.618524
  0
SEQEND
  8
0
  0
POLYLINE
  8
EBENE_1
  6
CONTINUOUS
 66
     1
 40
0.003000
 41
0.003000
  0
VERTEX
  8
EBENE_1
  6
CONTINUOUS
 10
2.560736
 20
-2.618524
  0
VERTEX
  8
EBENE_1
  6
CONTINUOUS
 10
2.560732
 20
-2.592642
  0
SEQEND
  8
0
  0
POLYLINE
  8
EBENE_1
  6
CONTINUOUS
 66
     1
 40
0.003000
 41
0.003000
  0
VERTEX
  8
EBENE_1
  6
CONTINUOUS
 10
2.560732
 20
-2.592642
  0
VERTEX
  8
EBENE_1
  6
CONTINUOUS
 10
2.560732
 20
-2.592429
  0
SEQEND
  8
0
  0
POLYLINE
  8
EBENE_1
  6
CONTINUOUS
 66
     1
 40
0.003000
 41
0.003000
  0
VERTEX
  8
EBENE_1
  6
CONTINUOUS
 10
2.560945
 20
-2.622370
  0
VERTEX
  8
EBENE_1
  6
CONTINUOUS
 10
2.579346
 20
-2.622370
  0
SEQEND
  8
0
  0
POLYLINE
  8
EBENE_1
  6
CONTINUOUS
 66
     1
 40
0.003000
 41
0.003000
  0
VERTEX
  8
EBENE_1
  6
CONTINUOUS
 10
2.579346
 20
-2.622370
  0
VERTEX
  8
EBENE_1
  6
CONTINUOUS
 10
2.579346
 20
-2.624508
  0
SEQEND
  8
0
  0
POLYLINE
  8
EBENE_1
  6
CONTINUOUS
 66
     1
 40
0.003000
 41
0.003000
  0
VERTEX
  8
EBENE_1
  6
CONTINUOUS
 10
2.579346
 20
-2.624508
  0
VERTEX
  8
EBENE_1
  6
CONTINUOUS
 10
2.598378
 20
-2.624508
  0
SEQEND
  8
0
  0
POLYLINE
  8
EBENE_1
  6
CONTINUOUS
 66
     1
 40
0.003000
 41
0.003000
  0
VERTEX
  8
EBENE_1
  6
CONTINUOUS
 10
2.598378
 20
-2.624508
  0
VERTEX
  8
EBENE_1
  6
CONTINUOUS
 10
2.598378
 20
-2.633709
  0
SEQEND
  8
0
  0
POLYLINE
  8
EBENE_1
  6
CONTINUOUS
 66
     1
 40
0.003000
 41
0.003000
  0
VERTEX
  8
EBENE_1
  6
CONTINUOUS
 10
2.598378
 20
-2.633709
  0
VERTEX
  8
EBENE_1
  6
CONTINUOUS
 10
2.560736
 20
-2.633709
  0
SEQEND
  8
0
  0
POLYLINE
  8
EBENE_1
  6
CONTINUOUS
 66
     1
 40
0.003000
 41
0.003000
  0
VERTEX
  8
EBENE_1
  6
CONTINUOUS
 10
2.560736
 20
-2.633709
  0
VERTEX
  8
EBENE_1
  6
CONTINUOUS
 10
2.560736
 20
-2.622370
  0
SEQEND
  8
0
  0
POLYLINE
  8
EBENE_1
  6
CONTINUOUS
 66
     1
 40
0.003000
 41
0.003000
  0
VERTEX
  8
EBENE_1
  6
CONTINUOUS
 10
2.560736
 20
-2.622370
  0
VERTEX
  8
EBENE_1
  6
CONTINUOUS
 10
2.560945
 20
-2.622370
  0
SEQEND
  8
0
  0
POLYLINE
  8
EBENE_1
  6
CONTINUOUS
 66
     1
 40
0.003000
 41
0.003000
  0
VERTEX
  8
EBENE_1
  6
CONTINUOUS
 10
2.601587
 20
-2.618524
  0
VERTEX
  8
EBENE_1
  6
CONTINUOUS
 10
2.604370
 20
-2.610394
  0
SEQEND
  8
0
  0
POLYLINE
  8
EBENE_1
  6
CONTINUOUS
 66
     1
 40
0.003000
 41
0.003000
  0
VERTEX
  8
EBENE_1
  6
CONTINUOUS
 10
2.604370
 20
-2.610394
  0
VERTEX
  8
EBENE_1
  6
CONTINUOUS
 10
2.608008
 20
-2.603760
  0
SEQEND
  8
0
  0
POLYLINE
  8
EBENE_1
  6
CONTINUOUS
 66
     1
 40
0.003000
 41
0.003000
  0
VERTEX
  8
EBENE_1
  6
CONTINUOUS
 10
2.608008
 20
-2.603760
  0
VERTEX
  8
EBENE_1
  6
CONTINUOUS
 10
2.612283
 20
-2.598205
  0
SEQEND
  8
0
  0
POLYLINE
  8
EBENE_1
  6
CONTINUOUS
 66
     1
 40
0.003000
 41
0.003000
  0
VERTEX
  8
EBENE_1
  6
CONTINUOUS
 10
2.612283
 20
-2.598205
  0
VERTEX
  8
EBENE_1
  6
CONTINUOUS
 10
2.617417
 20
-2.593921
  0
SEQEND
  8
0
  0
POLYLINE
  8
EBENE_1
  6
CONTINUOUS
 66
     1
 40
0.003000
 41
0.003000
  0
VERTEX
  8
EBENE_1
  6
CONTINUOUS
 10
2.617417
 20
-2.593921
  0
VERTEX
  8
EBENE_1
  6
CONTINUOUS
 10
2.622972
 20
-2.590713
  0
SEQEND
  8
0
  0
POLYLINE
  8
EBENE_1
  6
CONTINUOUS
 66
     1
 40
0.003000
 41
0.003000
  0
VERTEX
  8
EBENE_1
  6
CONTINUOUS
 10
2.622972
 20
-2.590713
  0
VERTEX
  8
EBENE_1
  6
CONTINUOUS
 10
2.628969
 20
-2.588366
  0
SEQEND
  8
0
  0
POLYLINE
  8
EBENE_1
  6
CONTINUOUS
 66
     1
 40
0.003000
 41
0.003000
  0
VERTEX
  8
EBENE_1
  6
CONTINUOUS
 10
2.628969
 20
-2.588366
  0
VERTEX
  8
EBENE_1
  6
CONTINUOUS
 10
2.634953
 20
-2.587079
  0
SEQEND
  8
0
  0
POLYLINE
  8
EBENE_1
  6
CONTINUOUS
 66
     1
 40
0.003000
 41
0.003000
  0
VERTEX
  8
EBENE_1
  6
CONTINUOUS
 10
2.634953
 20
-2.587079
  0
VERTEX
  8
EBENE_1
  6
CONTINUOUS
 10
2.641154
 20
-2.586228
  0
SEQEND
  8
0
  0
POLYLINE
  8
EBENE_1
  6
CONTINUOUS
 66
     1
 40
0.003000
 41
0.003000
  0
VERTEX
  8
EBENE_1
  6
CONTINUOUS
 10
2.641154
 20
-2.586228
  0
VERTEX
  8
EBENE_1
  6
CONTINUOUS
 10
2.647358
 20
-2.586008
  0
SEQEND
  8
0
  0
POLYLINE
  8
EBENE_1
  6
CONTINUOUS
 66
     1
 40
0.003000
 41
0.003000
  0
VERTEX
  8
EBENE_1
  6
CONTINUOUS
 10
2.647358
 20
-2.586008
  0
VERTEX
  8
EBENE_1
  6
CONTINUOUS
 10
2.653343
 20
-2.586228
  0
SEQEND
  8
0
  0
POLYLINE
  8
EBENE_1
  6
CONTINUOUS
 66
     1
 40
0.003000
 41
0.003000
  0
VERTEX
  8
EBENE_1
  6
CONTINUOUS
 10
2.653343
 20
-2.586228
  0
VERTEX
  8
EBENE_1
  6
CONTINUOUS
 10
2.659118
 20
-2.586866
  0
SEQEND
  8
0
  0
POLYLINE
  8
EBENE_1
  6
CONTINUOUS
 66
     1
 40
0.003000
 41
0.003000
  0
VERTEX
  8
EBENE_1
  6
CONTINUOUS
 10
2.659118
 20
-2.586866
  0
VERTEX
  8
EBENE_1
  6
CONTINUOUS
 10
2.664244
 20
-2.587724
  0
SEQEND
  8
0
  0
POLYLINE
  8
EBENE_1
  6
CONTINUOUS
 66
     1
 40
0.003000
 41
0.003000
  0
VERTEX
  8
EBENE_1
  6
CONTINUOUS
 10
2.664244
 20
-2.587724
  0
VERTEX
  8
EBENE_1
  6
CONTINUOUS
 10
2.668949
 20
-2.588795
  0
SEQEND
  8
0
  0
POLYLINE
  8
EBENE_1
  6
CONTINUOUS
 66
     1
 40
0.003000
 41
0.003000
  0
VERTEX
  8
EBENE_1
  6
CONTINUOUS
 10
2.668949
 20
-2.588795
  0
VERTEX
  8
EBENE_1
  6
CONTINUOUS
 10
2.673016
 20
-2.589862
  0
SEQEND
  8
0
  0
POLYLINE
  8
EBENE_1
  6
CONTINUOUS
 66
     1
 40
0.003000
 41
0.003000
  0
VERTEX
  8
EBENE_1
  6
CONTINUOUS
 10
2.673016
 20
-2.589862
  0
VERTEX
  8
EBENE_1
  6
CONTINUOUS
 10
2.676012
 20
-2.590933
  0
SEQEND
  8
0
  0
POLYLINE
  8
EBENE_1
  6
CONTINUOUS
 66
     1
 40
0.003000
 41
0.003000
  0
VERTEX
  8
EBENE_1
  6
CONTINUOUS
 10
2.676012
 20
-2.590933
  0
VERTEX
  8
EBENE_1
  6
CONTINUOUS
 10
2.678150
 20
-2.591571
  0
SEQEND
  8
0
  0
POLYLINE
  8
EBENE_1
  6
CONTINUOUS
 66
     1
 40
0.003000
 41
0.003000
  0
VERTEX
  8
EBENE_1
  6
CONTINUOUS
 10
2.678150
 20
-2.591571
  0
VERTEX
  8
EBENE_1
  6
CONTINUOUS
 10
2.678150
 20
-2.611890
  0
SEQEND
  8
0
  0
POLYLINE
  8
EBENE_1
  6
CONTINUOUS
 66
     1
 40
0.003000
 41
0.003000
  0
VERTEX
  8
EBENE_1
  6
CONTINUOUS
 10
2.678150
 20
-2.611890
  0
VERTEX
  8
EBENE_1
  6
CONTINUOUS
 10
2.677291
 20
-2.611031
  0
SEQEND
  8
0
  0
POLYLINE
  8
EBENE_1
  6
CONTINUOUS
 66
     1
 40
0.003000
 41
0.003000
  0
VERTEX
  8
EBENE_1
  6
CONTINUOUS
 10
2.677291
 20
-2.611031
  0
VERTEX
  8
EBENE_1
  6
CONTINUOUS
 10
2.675583
 20
-2.610181
  0
SEQEND
  8
0
  0
POLYLINE
  8
EBENE_1
  6
CONTINUOUS
 66
     1
 40
0.003000
 41
0.003000
  0
VERTEX
  8
EBENE_1
  6
CONTINUOUS
 10
2.675583
 20
-2.610181
  0
VERTEX
  8
EBENE_1
  6
CONTINUOUS
 10
2.673445
 20
-2.609114
  0
SEQEND
  8
0
  0
POLYLINE
  8
EBENE_1
  6
CONTINUOUS
 66
     1
 40
0.003000
 41
0.003000
  0
VERTEX
  8
EBENE_1
  6
CONTINUOUS
 10
2.673445
 20
-2.609114
  0
VERTEX
  8
EBENE_1
  6
CONTINUOUS
 10
2.670878
 20
-2.607827
  0
SEQEND
  8
0
  0
POLYLINE
  8
EBENE_1
  6
CONTINUOUS
 66
     1
 40
0.003000
 41
0.003000
  0
VERTEX
  8
EBENE_1
  6
CONTINUOUS
 10
2.670878
 20
-2.607827
  0
VERTEX
  8
EBENE_1
  6
CONTINUOUS
 10
2.667882
 20
-2.606756
  0
SEQEND
  8
0
  0
POLYLINE
  8
EBENE_1
  6
CONTINUOUS
 66
     1
 40
0.003000
 41
0.003000
  0
VERTEX
  8
EBENE_1
  6
CONTINUOUS
 10
2.667882
 20
-2.606756
  0
VERTEX
  8
EBENE_1
  6
CONTINUOUS
 10
2.664465
 20
-2.605689
  0
SEQEND
  8
0
  0
POLYLINE
  8
EBENE_1
  6
CONTINUOUS
 66
     1
 40
0.003000
 41
0.003000
  0
VERTEX
  8
EBENE_1
  6
CONTINUOUS
 10
2.664465
 20
-2.605689
  0
VERTEX
  8
EBENE_1
  6
CONTINUOUS
 10
2.660827
 20
-2.605047
  0
SEQEND
  8
0
  0
POLYLINE
  8
EBENE_1
  6
CONTINUOUS
 66
     1
 40
0.003000
 41
0.003000
  0
VERTEX
  8
EBENE_1
  6
CONTINUOUS
 10
2.660827
 20
-2.605047
  0
VERTEX
  8
EBENE_1
  6
CONTINUOUS
 10
2.657189
 20
-2.604402
  0
SEQEND
  8
0
  0
POLYLINE
  8
EBENE_1
  6
CONTINUOUS
 66
     1
 40
0.003000
 41
0.003000
  0
VERTEX
  8
EBENE_1
  6
CONTINUOUS
 10
2.657189
 20
-2.604402
  0
VERTEX
  8
EBENE_1
  6
CONTINUOUS
 10
2.653343
 20
-2.604189
  0
SEQEND
  8
0
  0
POLYLINE
  8
EBENE_1
  6
CONTINUOUS
 66
     1
 40
0.003000
 41
0.003000
  0
VERTEX
  8
EBENE_1
  6
CONTINUOUS
 10
2.653343
 20
-2.604189
  0
VERTEX
  8
EBENE_1
  6
CONTINUOUS
 10
2.649496
 20
-2.604402
  0
SEQEND
  8
0
  0
POLYLINE
  8
EBENE_1
  6
CONTINUOUS
 66
     1
 40
0.003000
 41
0.003000
  0
VERTEX
  8
EBENE_1
  6
CONTINUOUS
 10
2.649496
 20
-2.604402
  0
VERTEX
  8
EBENE_1
  6
CONTINUOUS
 10
2.645650
 20
-2.605047
  0
SEQEND
  8
0
  0
POLYLINE
  8
EBENE_1
  6
CONTINUOUS
 66
     1
 40
0.003000
 41
0.003000
  0
VERTEX
  8
EBENE_1
  6
CONTINUOUS
 10
2.645650
 20
-2.605047
  0
VERTEX
  8
EBENE_1
  6
CONTINUOUS
 10
2.642224
 20
-2.606327
  0
SEQEND
  8
0
  0
POLYLINE
  8
EBENE_1
  6
CONTINUOUS
 66
     1
 40
0.003000
 41
0.003000
  0
VERTEX
  8
EBENE_1
  6
CONTINUOUS
 10
2.642224
 20
-2.606327
  0
VERTEX
  8
EBENE_1
  6
CONTINUOUS
 10
2.639016
 20
-2.608256
  0
SEQEND
  8
0
  0
POLYLINE
  8
EBENE_1
  6
CONTINUOUS
 66
     1
 40
0.003000
 41
0.003000
  0
VERTEX
  8
EBENE_1
  6
CONTINUOUS
 10
2.639016
 20
-2.608256
  0
VERTEX
  8
EBENE_1
  6
CONTINUOUS
 10
2.636020
 20
-2.610823
  0
SEQEND
  8
0
  0
POLYLINE
  8
EBENE_1
  6
CONTINUOUS
 66
     1
 40
0.003000
 41
0.003000
  0
VERTEX
  8
EBENE_1
  6
CONTINUOUS
 10
2.636020
 20
-2.610823
  0
VERTEX
  8
EBENE_1
  6
CONTINUOUS
 10
2.633453
 20
-2.614240
  0
SEQEND
  8
0
  0
POLYLINE
  8
EBENE_1
  6
CONTINUOUS
 66
     1
 40
0.003000
 41
0.003000
  0
VERTEX
  8
EBENE_1
  6
CONTINUOUS
 10
2.633453
 20
-2.614240
  0
VERTEX
  8
EBENE_1
  6
CONTINUOUS
 10
2.631535
 20
-2.618524
  0
SEQEND
  8
0
  0
POLYLINE
  8
EBENE_1
  6
CONTINUOUS
 66
     1
 40
0.003000
 41
0.003000
  0
VERTEX
  8
EBENE_1
  6
CONTINUOUS
 10
2.631535
 20
-2.618524
  0
VERTEX
  8
EBENE_1
  6
CONTINUOUS
 10
2.601587
 20
-2.618524
  0
SEQEND
  8
0
  0
POLYLINE
  8
EBENE_1
  6
CONTINUOUS
 66
     1
 40
0.003000
 41
0.003000
  0
VERTEX
  8
EBENE_1
  6
CONTINUOUS
 10
2.601374
 20
-2.622583
  0
VERTEX
  8
EBENE_1
  6
CONTINUOUS
 10
2.631535
 20
-2.622583
  0
SEQEND
  8
0
  0
POLYLINE
  8
EBENE_1
  6
CONTINUOUS
 66
     1
 40
0.003000
 41
0.003000
  0
VERTEX
  8
EBENE_1
  6
CONTINUOUS
 10
2.631535
 20
-2.622583
  0
VERTEX
  8
EBENE_1
  6
CONTINUOUS
 10
2.633244
 20
-2.626437
  0
SEQEND
  8
0
  0
POLYLINE
  8
EBENE_1
  6
CONTINUOUS
 66
     1
 40
0.003000
 41
0.003000
  0
VERTEX
  8
EBENE_1
  6
CONTINUOUS
 10
2.633244
 20
-2.626437
  0
VERTEX
  8
EBENE_1
  6
CONTINUOUS
 10
2.635169
 20
-2.629425
  0
SEQEND
  8
0
  0
POLYLINE
  8
EBENE_1
  6
CONTINUOUS
 66
     1
 40
0.003000
 41
0.003000
  0
VERTEX
  8
EBENE_1
  6
CONTINUOUS
 10
2.635169
 20
-2.629425
  0
VERTEX
  8
EBENE_1
  6
CONTINUOUS
 10
2.637520
 20
-2.631783
  0
SEQEND
  8
0
  0
POLYLINE
  8
EBENE_1
  6
CONTINUOUS
 66
     1
 40
0.003000
 41
0.003000
  0
VERTEX
  8
EBENE_1
  6
CONTINUOUS
 10
2.637520
 20
-2.631783
  0
VERTEX
  8
EBENE_1
  6
CONTINUOUS
 10
2.640295
 20
-2.633709
  0
SEQEND
  8
0
  0
POLYLINE
  8
EBENE_1
  6
CONTINUOUS
 66
     1
 40
0.003000
 41
0.003000
  0
VERTEX
  8
EBENE_1
  6
CONTINUOUS
 10
2.640295
 20
-2.633709
  0
VERTEX
  8
EBENE_1
  6
CONTINUOUS
 10
2.643295
 20
-2.634988
  0
SEQEND
  8
0
  0
POLYLINE
  8
EBENE_1
  6
CONTINUOUS
 66
     1
 40
0.003000
 41
0.003000
  0
VERTEX
  8
EBENE_1
  6
CONTINUOUS
 10
2.643295
 20
-2.634988
  0
VERTEX
  8
EBENE_1
  6
CONTINUOUS
 10
2.646500
 20
-2.635846
  0
SEQEND
  8
0
  0
POLYLINE
  8
EBENE_1
  6
CONTINUOUS
 66
     1
 40
0.003000
 41
0.003000
  0
VERTEX
  8
EBENE_1
  6
CONTINUOUS
 10
2.646500
 20
-2.635846
  0
VERTEX
  8
EBENE_1
  6
CONTINUOUS
 10
2.649709
 20
-2.636276
  0
SEQEND
  8
0
  0
POLYLINE
  8
EBENE_1
  6
CONTINUOUS
 66
     1
 40
0.003000
 41
0.003000
  0
VERTEX
  8
EBENE_1
  6
CONTINUOUS
 10
2.649709
 20
-2.636276
  0
VERTEX
  8
EBENE_1
  6
CONTINUOUS
 10
2.653134
 20
-2.636276
  0
SEQEND
  8
0
  0
POLYLINE
  8
EBENE_1
  6
CONTINUOUS
 66
     1
 40
0.003000
 41
0.003000
  0
VERTEX
  8
EBENE_1
  6
CONTINUOUS
 10
2.653134
 20
-2.636276
  0
VERTEX
  8
EBENE_1
  6
CONTINUOUS
 10
2.656551
 20
-2.636059
  0
SEQEND
  8
0
  0
POLYLINE
  8
EBENE_1
  6
CONTINUOUS
 66
     1
 40
0.003000
 41
0.003000
  0
VERTEX
  8
EBENE_1
  6
CONTINUOUS
 10
2.656551
 20
-2.636059
  0
VERTEX
  8
EBENE_1
  6
CONTINUOUS
 10
2.660189
 20
-2.635417
  0
SEQEND
  8
0
  0
POLYLINE
  8
EBENE_1
  6
CONTINUOUS
 66
     1
 40
0.003000
 41
0.003000
  0
VERTEX
  8
EBENE_1
  6
CONTINUOUS
 10
2.660189
 20
-2.635417
  0
VERTEX
  8
EBENE_1
  6
CONTINUOUS
 10
2.663606
 20
-2.634780
  0
SEQEND
  8
0
  0
POLYLINE
  8
EBENE_1
  6
CONTINUOUS
 66
     1
 40
0.003000
 41
0.003000
  0
VERTEX
  8
EBENE_1
  6
CONTINUOUS
 10
2.663606
 20
-2.634780
  0
VERTEX
  8
EBENE_1
  6
CONTINUOUS
 10
2.666811
 20
-2.633709
  0
SEQEND
  8
0
  0
POLYLINE
  8
EBENE_1
  6
CONTINUOUS
 66
     1
 40
0.003000
 41
0.003000
  0
VERTEX
  8
EBENE_1
  6
CONTINUOUS
 10
2.666811
 20
-2.633709
  0
VERTEX
  8
EBENE_1
  6
CONTINUOUS
 10
2.670020
 20
-2.632642
  0
SEQEND
  8
0
  0
POLYLINE
  8
EBENE_1
  6
CONTINUOUS
 66
     1
 40
0.003000
 41
0.003000
  0
VERTEX
  8
EBENE_1
  6
CONTINUOUS
 10
2.670020
 20
-2.632642
  0
VERTEX
  8
EBENE_1
  6
CONTINUOUS
 10
2.673016
 20
-2.631571
  0
SEQEND
  8
0
  0
POLYLINE
  8
EBENE_1
  6
CONTINUOUS
 66
     1
 40
0.003000
 41
0.003000
  0
VERTEX
  8
EBENE_1
  6
CONTINUOUS
 10
2.673016
 20
-2.631571
  0
VERTEX
  8
EBENE_1
  6
CONTINUOUS
 10
2.675803
 20
-2.630283
  0
SEQEND
  8
0
  0
POLYLINE
  8
EBENE_1
  6
CONTINUOUS
 66
     1
 40
0.003000
 41
0.003000
  0
VERTEX
  8
EBENE_1
  6
CONTINUOUS
 10
2.675803
 20
-2.630283
  0
VERTEX
  8
EBENE_1
  6
CONTINUOUS
 10
2.678150
 20
-2.629217
  0
SEQEND
  8
0
  0
POLYLINE
  8
EBENE_1
  6
CONTINUOUS
 66
     1
 40
0.003000
 41
0.003000
  0
VERTEX
  8
EBENE_1
  6
CONTINUOUS
 10
2.678150
 20
-2.629217
  0
VERTEX
  8
EBENE_1
  6
CONTINUOUS
 10
2.678150
 20
-2.649535
  0
SEQEND
  8
0
  0
POLYLINE
  8
EBENE_1
  6
CONTINUOUS
 66
     1
 40
0.003000
 41
0.003000
  0
VERTEX
  8
EBENE_1
  6
CONTINUOUS
 10
2.678150
 20
-2.649535
  0
VERTEX
  8
EBENE_1
  6
CONTINUOUS
 10
2.667031
 20
-2.652740
  0
SEQEND
  8
0
  0
POLYLINE
  8
EBENE_1
  6
CONTINUOUS
 66
     1
 40
0.003000
 41
0.003000
  0
VERTEX
  8
EBENE_1
  6
CONTINUOUS
 10
2.667031
 20
-2.652740
  0
VERTEX
  8
EBENE_1
  6
CONTINUOUS
 10
2.656972
 20
-2.654669
  0
SEQEND
  8
0
  0
POLYLINE
  8
EBENE_1
  6
CONTINUOUS
 66
     1
 40
0.003000
 41
0.003000
  0
VERTEX
  8
EBENE_1
  6
CONTINUOUS
 10
2.656972
 20
-2.654669
  0
VERTEX
  8
EBENE_1
  6
CONTINUOUS
 10
2.648000
 20
-2.655311
  0
SEQEND
  8
0
  0
POLYLINE
  8
EBENE_1
  6
CONTINUOUS
 66
     1
 40
0.003000
 41
0.003000
  0
VERTEX
  8
EBENE_1
  6
CONTINUOUS
 10
2.648000
 20
-2.655311
  0
VERTEX
  8
EBENE_1
  6
CONTINUOUS
 10
2.639878
 20
-2.655098
  0
SEQEND
  8
0
  0
POLYLINE
  8
EBENE_1
  6
CONTINUOUS
 66
     1
 40
0.003000
 41
0.003000
  0
VERTEX
  8
EBENE_1
  6
CONTINUOUS
 10
2.639878
 20
-2.655098
  0
VERTEX
  8
EBENE_1
  6
CONTINUOUS
 10
2.632815
 20
-2.654031
  0
SEQEND
  8
0
  0
POLYLINE
  8
EBENE_1
  6
CONTINUOUS
 66
     1
 40
0.003000
 41
0.003000
  0
VERTEX
  8
EBENE_1
  6
CONTINUOUS
 10
2.632815
 20
-2.654031
  0
VERTEX
  8
EBENE_1
  6
CONTINUOUS
 10
2.626610
 20
-2.652102
  0
SEQEND
  8
0
  0
POLYLINE
  8
EBENE_1
  6
CONTINUOUS
 66
     1
 40
0.003000
 41
0.003000
  0
VERTEX
  8
EBENE_1
  6
CONTINUOUS
 10
2.626610
 20
-2.652102
  0
VERTEX
  8
EBENE_1
  6
CONTINUOUS
 10
2.621264
 20
-2.649744
  0
SEQEND
  8
0
  0
POLYLINE
  8
EBENE_1
  6
CONTINUOUS
 66
     1
 40
0.003000
 41
0.003000
  0
VERTEX
  8
EBENE_1
  6
CONTINUOUS
 10
2.621264
 20
-2.649744
  0
VERTEX
  8
EBENE_1
  6
CONTINUOUS
 10
2.616559
 20
-2.646756
  0
SEQEND
  8
0
  0
POLYLINE
  8
EBENE_1
  6
CONTINUOUS
 66
     1
 40
0.003000
 41
0.003000
  0
VERTEX
  8
EBENE_1
  6
CONTINUOUS
 10
2.616559
 20
-2.646756
  0
VERTEX
  8
EBENE_1
  6
CONTINUOUS
 10
2.612713
 20
-2.643551
  0
SEQEND
  8
0
  0
POLYLINE
  8
EBENE_1
  6
CONTINUOUS
 66
     1
 40
0.003000
 41
0.003000
  0
VERTEX
  8
EBENE_1
  6
CONTINUOUS
 10
2.612713
 20
-2.643551
  0
VERTEX
  8
EBENE_1
  6
CONTINUOUS
 10
2.609496
 20
-2.639913
  0
SEQEND
  8
0
  0
POLYLINE
  8
EBENE_1
  6
CONTINUOUS
 66
     1
 40
0.003000
 41
0.003000
  0
VERTEX
  8
EBENE_1
  6
CONTINUOUS
 10
2.609496
 20
-2.639913
  0
VERTEX
  8
EBENE_1
  6
CONTINUOUS
 10
2.606929
 20
-2.636488
  0
SEQEND
  8
0
  0
POLYLINE
  8
EBENE_1
  6
CONTINUOUS
 66
     1
 40
0.003000
 41
0.003000
  0
VERTEX
  8
EBENE_1
  6
CONTINUOUS
 10
2.606929
 20
-2.636488
  0
VERTEX
  8
EBENE_1
  6
CONTINUOUS
 10
2.604791
 20
-2.633063
  0
SEQEND
  8
0
  0
POLYLINE
  8
EBENE_1
  6
CONTINUOUS
 66
     1
 40
0.003000
 41
0.003000
  0
VERTEX
  8
EBENE_1
  6
CONTINUOUS
 10
2.604791
 20
-2.633063
  0
VERTEX
  8
EBENE_1
  6
CONTINUOUS
 10
2.603303
 20
-2.629854
  0
SEQEND
  8
0
  0
POLYLINE
  8
EBENE_1
  6
CONTINUOUS
 66
     1
 40
0.003000
 41
0.003000
  0
VERTEX
  8
EBENE_1
  6
CONTINUOUS
 10
2.603303
 20
-2.629854
  0
VERTEX
  8
EBENE_1
  6
CONTINUOUS
 10
2.602224
 20
-2.626866
  0
SEQEND
  8
0
  0
POLYLINE
  8
EBENE_1
  6
CONTINUOUS
 66
     1
 40
0.003000
 41
0.003000
  0
VERTEX
  8
EBENE_1
  6
CONTINUOUS
 10
2.602224
 20
-2.626866
  0
VERTEX
  8
EBENE_1
  6
CONTINUOUS
 10
2.601587
 20
-2.624508
  0
SEQEND
  8
0
  0
POLYLINE
  8
EBENE_1
  6
CONTINUOUS
 66
     1
 40
0.003000
 41
0.003000
  0
VERTEX
  8
EBENE_1
  6
CONTINUOUS
 10
2.601587
 20
-2.624508
  0
VERTEX
  8
EBENE_1
  6
CONTINUOUS
 10
2.601374
 20
-2.622583
  0
SEQEND
  8
0
  0
POLYLINE
  8
EBENE_1
  6
CONTINUOUS
 66
     1
 40
0.003000
 41
0.003000
  0
VERTEX
  8
EBENE_1
  6
CONTINUOUS
 10
2.523941
 20
-2.642902
  0
VERTEX
  8
EBENE_1
  6
CONTINUOUS
 10
2.523732
 20
-2.641835
  0
SEQEND
  8
0
  0
POLYLINE
  8
EBENE_1
  6
CONTINUOUS
 66
     1
 40
0.003000
 41
0.003000
  0
VERTEX
  8
EBENE_1
  6
CONTINUOUS
 10
2.523732
 20
-2.641835
  0
VERTEX
  8
EBENE_1
  6
CONTINUOUS
 10
2.523520
 20
-2.640984
  0
SEQEND
  8
0
  0
POLYLINE
  8
EBENE_1
  6
CONTINUOUS
 66
     1
 40
0.003000
 41
0.003000
  0
VERTEX
  8
EBENE_1
  6
CONTINUOUS
 10
2.523520
 20
-2.640984
  0
VERTEX
  8
EBENE_1
  6
CONTINUOUS
 10
2.522874
 20
-2.640335
  0
SEQEND
  8
0
  0
POLYLINE
  8
EBENE_1
  6
CONTINUOUS
 66
     1
 40
0.003000
 41
0.003000
  0
VERTEX
  8
EBENE_1
  6
CONTINUOUS
 10
2.522874
 20
-2.640335
  0
VERTEX
  8
EBENE_1
  6
CONTINUOUS
 10
2.522024
 20
-2.639913
  0
SEQEND
  8
0
  0
POLYLINE
  8
EBENE_1
  6
CONTINUOUS
 66
     1
 40
0.003000
 41
0.003000
  0
VERTEX
  8
EBENE_1
  6
CONTINUOUS
 10
2.522024
 20
-2.639913
  0
VERTEX
  8
EBENE_1
  6
CONTINUOUS
 10
2.521165
 20
-2.639484
  0
SEQEND
  8
0
  0
POLYLINE
  8
EBENE_1
  6
CONTINUOUS
 66
     1
 40
0.003000
 41
0.003000
  0
VERTEX
  8
EBENE_1
  6
CONTINUOUS
 10
2.521165
 20
-2.639484
  0
VERTEX
  8
EBENE_1
  6
CONTINUOUS
 10
2.519886
 20
-2.639264
  0
SEQEND
  8
0
  0
POLYLINE
  8
EBENE_1
  6
CONTINUOUS
 66
     1
 40
0.003000
 41
0.003000
  0
VERTEX
  8
EBENE_1
  6
CONTINUOUS
 10
2.519886
 20
-2.639264
  0
VERTEX
  8
EBENE_1
  6
CONTINUOUS
 10
2.518386
 20
-2.639055
  0
SEQEND
  8
0
  0
POLYLINE
  8
EBENE_1
  6
CONTINUOUS
 66
     1
 40
0.003000
 41
0.003000
  0
VERTEX
  8
EBENE_1
  6
CONTINUOUS
 10
2.518386
 20
-2.639055
  0
VERTEX
  8
EBENE_1
  6
CONTINUOUS
 10
2.516890
 20
-2.639055
  0
SEQEND
  8
0
  0
POLYLINE
  8
EBENE_1
  6
CONTINUOUS
 66
     1
 40
0.003000
 41
0.003000
  0
VERTEX
  8
EBENE_1
  6
CONTINUOUS
 10
2.516890
 20
-2.639055
  0
VERTEX
  8
EBENE_1
  6
CONTINUOUS
 10
2.514110
 20
-2.639264
  0
SEQEND
  8
0
  0
POLYLINE
  8
EBENE_1
  6
CONTINUOUS
 66
     1
 40
0.003000
 41
0.003000
  0
VERTEX
  8
EBENE_1
  6
CONTINUOUS
 10
2.514110
 20
-2.639264
  0
VERTEX
  8
EBENE_1
  6
CONTINUOUS
 10
2.512181
 20
-2.640122
  0
SEQEND
  8
0
  0
POLYLINE
  8
EBENE_1
  6
CONTINUOUS
 66
     1
 40
0.003000
 41
0.003000
  0
VERTEX
  8
EBENE_1
  6
CONTINUOUS
 10
2.512181
 20
-2.640122
  0
VERTEX
  8
EBENE_1
  6
CONTINUOUS
 10
2.511114
 20
-2.641402
  0
SEQEND
  8
0
  0
POLYLINE
  8
EBENE_1
  6
CONTINUOUS
 66
     1
 40
0.003000
 41
0.003000
  0
VERTEX
  8
EBENE_1
  6
CONTINUOUS
 10
2.511114
 20
-2.641402
  0
VERTEX
  8
EBENE_1
  6
CONTINUOUS
 10
2.510685
 20
-2.642693
  0
SEQEND
  8
0
  0
POLYLINE
  8
EBENE_1
  6
CONTINUOUS
 66
     1
 40
0.003000
 41
0.003000
  0
VERTEX
  8
EBENE_1
  6
CONTINUOUS
 10
2.510685
 20
-2.642693
  0
VERTEX
  8
EBENE_1
  6
CONTINUOUS
 10
2.511323
 20
-2.644402
  0
SEQEND
  8
0
  0
POLYLINE
  8
EBENE_1
  6
CONTINUOUS
 66
     1
 40
0.003000
 41
0.003000
  0
VERTEX
  8
EBENE_1
  6
CONTINUOUS
 10
2.511323
 20
-2.644402
  0
VERTEX
  8
EBENE_1
  6
CONTINUOUS
 10
2.513031
 20
-2.645469
  0
SEQEND
  8
0
  0
POLYLINE
  8
EBENE_1
  6
CONTINUOUS
 66
     1
 40
0.003000
 41
0.003000
  0
VERTEX
  8
EBENE_1
  6
CONTINUOUS
 10
2.513031
 20
-2.645469
  0
VERTEX
  8
EBENE_1
  6
CONTINUOUS
 10
2.514748
 20
-2.646110
  0
SEQEND
  8
0
  0
POLYLINE
  8
EBENE_1
  6
CONTINUOUS
 66
     1
 40
0.003000
 41
0.003000
  0
VERTEX
  8
EBENE_1
  6
CONTINUOUS
 10
2.514748
 20
-2.646110
  0
VERTEX
  8
EBENE_1
  6
CONTINUOUS
 10
2.516248
 20
-2.646327
  0
SEQEND
  8
0
  0
POLYLINE
  8
EBENE_1
  6
CONTINUOUS
 66
     1
 40
0.003000
 41
0.003000
  0
VERTEX
  8
EBENE_1
  6
CONTINUOUS
 10
2.516248
 20
-2.646327
  0
VERTEX
  8
EBENE_1
  6
CONTINUOUS
 10
2.517748
 20
-2.646539
  0
SEQEND
  8
0
  0
POLYLINE
  8
EBENE_1
  6
CONTINUOUS
 66
     1
 40
0.003000
 41
0.003000
  0
VERTEX
  8
EBENE_1
  6
CONTINUOUS
 10
2.517748
 20
-2.646539
  0
VERTEX
  8
EBENE_1
  6
CONTINUOUS
 10
2.519457
 20
-2.646756
  0
SEQEND
  8
0
  0
POLYLINE
  8
EBENE_1
  6
CONTINUOUS
 66
     1
 40
0.003000
 41
0.003000
  0
VERTEX
  8
EBENE_1
  6
CONTINUOUS
 10
2.519457
 20
-2.646756
  0
VERTEX
  8
EBENE_1
  6
CONTINUOUS
 10
2.521165
 20
-2.647398
  0
SEQEND
  8
0
  0
POLYLINE
  8
EBENE_1
  6
CONTINUOUS
 66
     1
 40
0.003000
 41
0.003000
  0
VERTEX
  8
EBENE_1
  6
CONTINUOUS
 10
2.521165
 20
-2.647398
  0
VERTEX
  8
EBENE_1
  6
CONTINUOUS
 10
2.521803
 20
-2.648465
  0
SEQEND
  8
0
  0
POLYLINE
  8
EBENE_1
  6
CONTINUOUS
 66
     1
 40
0.003000
 41
0.003000
  0
VERTEX
  8
EBENE_1
  6
CONTINUOUS
 10
2.521803
 20
-2.648465
  0
VERTEX
  8
EBENE_1
  6
CONTINUOUS
 10
2.521374
 20
-2.649535
  0
SEQEND
  8
0
  0
POLYLINE
  8
EBENE_1
  6
CONTINUOUS
 66
     1
 40
0.003000
 41
0.003000
  0
VERTEX
  8
EBENE_1
  6
CONTINUOUS
 10
2.521374
 20
-2.649535
  0
VERTEX
  8
EBENE_1
  6
CONTINUOUS
 10
2.520524
 20
-2.650173
  0
SEQEND
  8
0
  0
POLYLINE
  8
EBENE_1
  6
CONTINUOUS
 66
     1
 40
0.003000
 41
0.003000
  0
VERTEX
  8
EBENE_1
  6
CONTINUOUS
 10
2.520524
 20
-2.650173
  0
VERTEX
  8
EBENE_1
  6
CONTINUOUS
 10
2.519028
 20
-2.650602
  0
SEQEND
  8
0
  0
POLYLINE
  8
EBENE_1
  6
CONTINUOUS
 66
     1
 40
0.003000
 41
0.003000
  0
VERTEX
  8
EBENE_1
  6
CONTINUOUS
 10
2.519028
 20
-2.650602
  0
VERTEX
  8
EBENE_1
  6
CONTINUOUS
 10
2.517528
 20
-2.650602
  0
SEQEND
  8
0
  0
POLYLINE
  8
EBENE_1
  6
CONTINUOUS
 66
     1
 40
0.003000
 41
0.003000
  0
VERTEX
  8
EBENE_1
  6
CONTINUOUS
 10
2.517528
 20
-2.650602
  0
VERTEX
  8
EBENE_1
  6
CONTINUOUS
 10
2.516028
 20
-2.650394
  0
SEQEND
  8
0
  0
POLYLINE
  8
EBENE_1
  6
CONTINUOUS
 66
     1
 40
0.003000
 41
0.003000
  0
VERTEX
  8
EBENE_1
  6
CONTINUOUS
 10
2.516028
 20
-2.650394
  0
VERTEX
  8
EBENE_1
  6
CONTINUOUS
 10
2.514748
 20
-2.649965
  0
SEQEND
  8
0
  0
POLYLINE
  8
EBENE_1
  6
CONTINUOUS
 66
     1
 40
0.003000
 41
0.003000
  0
VERTEX
  8
EBENE_1
  6
CONTINUOUS
 10
2.514748
 20
-2.649965
  0
VERTEX
  8
EBENE_1
  6
CONTINUOUS
 10
2.513681
 20
-2.649323
  0
SEQEND
  8
0
  0
POLYLINE
  8
EBENE_1
  6
CONTINUOUS
 66
     1
 40
0.003000
 41
0.003000
  0
VERTEX
  8
EBENE_1
  6
CONTINUOUS
 10
2.513681
 20
-2.649323
  0
VERTEX
  8
EBENE_1
  6
CONTINUOUS
 10
2.513252
 20
-2.648035
  0
SEQEND
  8
0
  0
POLYLINE
  8
EBENE_1
  6
CONTINUOUS
 66
     1
 40
0.003000
 41
0.003000
  0
VERTEX
  8
EBENE_1
  6
CONTINUOUS
 10
2.513252
 20
-2.648035
  0
VERTEX
  8
EBENE_1
  6
CONTINUOUS
 10
2.510472
 20
-2.648035
  0
SEQEND
  8
0
  0
POLYLINE
  8
EBENE_1
  6
CONTINUOUS
 66
     1
 40
0.003000
 41
0.003000
  0
VERTEX
  8
EBENE_1
  6
CONTINUOUS
 10
2.510472
 20
-2.648035
  0
VERTEX
  8
EBENE_1
  6
CONTINUOUS
 10
2.510685
 20
-2.649323
  0
SEQEND
  8
0
  0
POLYLINE
  8
EBENE_1
  6
CONTINUOUS
 66
     1
 40
0.003000
 41
0.003000
  0
VERTEX
  8
EBENE_1
  6
CONTINUOUS
 10
2.510685
 20
-2.649323
  0
VERTEX
  8
EBENE_1
  6
CONTINUOUS
 10
2.511114
 20
-2.650173
  0
SEQEND
  8
0
  0
POLYLINE
  8
EBENE_1
  6
CONTINUOUS
 66
     1
 40
0.003000
 41
0.003000
  0
VERTEX
  8
EBENE_1
  6
CONTINUOUS
 10
2.511114
 20
-2.650173
  0
VERTEX
  8
EBENE_1
  6
CONTINUOUS
 10
2.511752
 20
-2.651031
  0
SEQEND
  8
0
  0
POLYLINE
  8
EBENE_1
  6
CONTINUOUS
 66
     1
 40
0.003000
 41
0.003000
  0
VERTEX
  8
EBENE_1
  6
CONTINUOUS
 10
2.511752
 20
-2.651031
  0
VERTEX
  8
EBENE_1
  6
CONTINUOUS
 10
2.512823
 20
-2.651461
  0
SEQEND
  8
0
  0
POLYLINE
  8
EBENE_1
  6
CONTINUOUS
 66
     1
 40
0.003000
 41
0.003000
  0
VERTEX
  8
EBENE_1
  6
CONTINUOUS
 10
2.512823
 20
-2.651461
  0
VERTEX
  8
EBENE_1
  6
CONTINUOUS
 10
2.513890
 20
-2.651890
  0
SEQEND
  8
0
  0
POLYLINE
  8
EBENE_1
  6
CONTINUOUS
 66
     1
 40
0.003000
 41
0.003000
  0
VERTEX
  8
EBENE_1
  6
CONTINUOUS
 10
2.513890
 20
-2.651890
  0
VERTEX
  8
EBENE_1
  6
CONTINUOUS
 10
2.515177
 20
-2.652102
  0
SEQEND
  8
0
  0
POLYLINE
  8
EBENE_1
  6
CONTINUOUS
 66
     1
 40
0.003000
 41
0.003000
  0
VERTEX
  8
EBENE_1
  6
CONTINUOUS
 10
2.515177
 20
-2.652102
  0
VERTEX
  8
EBENE_1
  6
CONTINUOUS
 10
2.516248
 20
-2.652311
  0
SEQEND
  8
0
  0
POLYLINE
  8
EBENE_1
  6
CONTINUOUS
 66
     1
 40
0.003000
 41
0.003000
  0
VERTEX
  8
EBENE_1
  6
CONTINUOUS
 10
2.516248
 20
-2.652311
  0
VERTEX
  8
EBENE_1
  6
CONTINUOUS
 10
2.517528
 20
-2.652311
  0
SEQEND
  8
0
  0
POLYLINE
  8
EBENE_1
  6
CONTINUOUS
 66
     1
 40
0.003000
 41
0.003000
  0
VERTEX
  8
EBENE_1
  6
CONTINUOUS
 10
2.517528
 20
-2.652311
  0
VERTEX
  8
EBENE_1
  6
CONTINUOUS
 10
2.518815
 20
-2.652311
  0
SEQEND
  8
0
  0
POLYLINE
  8
EBENE_1
  6
CONTINUOUS
 66
     1
 40
0.003000
 41
0.003000
  0
VERTEX
  8
EBENE_1
  6
CONTINUOUS
 10
2.518815
 20
-2.652311
  0
VERTEX
  8
EBENE_1
  6
CONTINUOUS
 10
2.520094
 20
-2.652102
  0
SEQEND
  8
0
  0
POLYLINE
  8
EBENE_1
  6
CONTINUOUS
 66
     1
 40
0.003000
 41
0.003000
  0
VERTEX
  8
EBENE_1
  6
CONTINUOUS
 10
2.520094
 20
-2.652102
  0
VERTEX
  8
EBENE_1
  6
CONTINUOUS
 10
2.521165
 20
-2.651890
  0
SEQEND
  8
0
  0
POLYLINE
  8
EBENE_1
  6
CONTINUOUS
 66
     1
 40
0.003000
 41
0.003000
  0
VERTEX
  8
EBENE_1
  6
CONTINUOUS
 10
2.521165
 20
-2.651890
  0
VERTEX
  8
EBENE_1
  6
CONTINUOUS
 10
2.522453
 20
-2.651461
  0
SEQEND
  8
0
  0
POLYLINE
  8
EBENE_1
  6
CONTINUOUS
 66
     1
 40
0.003000
 41
0.003000
  0
VERTEX
  8
EBENE_1
  6
CONTINUOUS
 10
2.522453
 20
-2.651461
  0
VERTEX
  8
EBENE_1
  6
CONTINUOUS
 10
2.523303
 20
-2.651031
  0
SEQEND
  8
0
  0
POLYLINE
  8
EBENE_1
  6
CONTINUOUS
 66
     1
 40
0.003000
 41
0.003000
  0
VERTEX
  8
EBENE_1
  6
CONTINUOUS
 10
2.523303
 20
-2.651031
  0
VERTEX
  8
EBENE_1
  6
CONTINUOUS
 10
2.523941
 20
-2.650394
  0
SEQEND
  8
0
  0
POLYLINE
  8
EBENE_1
  6
CONTINUOUS
 66
     1
 40
0.003000
 41
0.003000
  0
VERTEX
  8
EBENE_1
  6
CONTINUOUS
 10
2.523941
 20
-2.650394
  0
VERTEX
  8
EBENE_1
  6
CONTINUOUS
 10
2.524370
 20
-2.649535
  0
SEQEND
  8
0
  0
POLYLINE
  8
EBENE_1
  6
CONTINUOUS
 66
     1
 40
0.003000
 41
0.003000
  0
VERTEX
  8
EBENE_1
  6
CONTINUOUS
 10
2.524370
 20
-2.649535
  0
VERTEX
  8
EBENE_1
  6
CONTINUOUS
 10
2.524591
 20
-2.648465
  0
SEQEND
  8
0
  0
POLYLINE
  8
EBENE_1
  6
CONTINUOUS
 66
     1
 40
0.003000
 41
0.003000
  0
VERTEX
  8
EBENE_1
  6
CONTINUOUS
 10
2.524591
 20
-2.648465
  0
VERTEX
  8
EBENE_1
  6
CONTINUOUS
 10
2.524161
 20
-2.646969
  0
SEQEND
  8
0
  0
POLYLINE
  8
EBENE_1
  6
CONTINUOUS
 66
     1
 40
0.003000
 41
0.003000
  0
VERTEX
  8
EBENE_1
  6
CONTINUOUS
 10
2.524161
 20
-2.646969
  0
VERTEX
  8
EBENE_1
  6
CONTINUOUS
 10
2.522874
 20
-2.645898
  0
SEQEND
  8
0
  0
POLYLINE
  8
EBENE_1
  6
CONTINUOUS
 66
     1
 40
0.003000
 41
0.003000
  0
VERTEX
  8
EBENE_1
  6
CONTINUOUS
 10
2.522874
 20
-2.645898
  0
VERTEX
  8
EBENE_1
  6
CONTINUOUS
 10
2.521165
 20
-2.645260
  0
SEQEND
  8
0
  0
POLYLINE
  8
EBENE_1
  6
CONTINUOUS
 66
     1
 40
0.003000
 41
0.003000
  0
VERTEX
  8
EBENE_1
  6
CONTINUOUS
 10
2.521165
 20
-2.645260
  0
VERTEX
  8
EBENE_1
  6
CONTINUOUS
 10
2.518598
 20
-2.644831
  0
SEQEND
  8
0
  0
POLYLINE
  8
EBENE_1
  6
CONTINUOUS
 66
     1
 40
0.003000
 41
0.003000
  0
VERTEX
  8
EBENE_1
  6
CONTINUOUS
 10
2.518598
 20
-2.644831
  0
VERTEX
  8
EBENE_1
  6
CONTINUOUS
 10
2.516248
 20
-2.644402
  0
SEQEND
  8
0
  0
POLYLINE
  8
EBENE_1
  6
CONTINUOUS
 66
     1
 40
0.003000
 41
0.003000
  0
VERTEX
  8
EBENE_1
  6
CONTINUOUS
 10
2.516248
 20
-2.644402
  0
VERTEX
  8
EBENE_1
  6
CONTINUOUS
 10
2.514748
 20
-2.643972
  0
SEQEND
  8
0
  0
POLYLINE
  8
EBENE_1
  6
CONTINUOUS
 66
     1
 40
0.003000
 41
0.003000
  0
VERTEX
  8
EBENE_1
  6
CONTINUOUS
 10
2.514748
 20
-2.643972
  0
VERTEX
  8
EBENE_1
  6
CONTINUOUS
 10
2.513890
 20
-2.643551
  0
SEQEND
  8
0
  0
POLYLINE
  8
EBENE_1
  6
CONTINUOUS
 66
     1
 40
0.003000
 41
0.003000
  0
VERTEX
  8
EBENE_1
  6
CONTINUOUS
 10
2.513890
 20
-2.643551
  0
VERTEX
  8
EBENE_1
  6
CONTINUOUS
 10
2.513681
 20
-2.642693
  0
SEQEND
  8
0
  0
POLYLINE
  8
EBENE_1
  6
CONTINUOUS
 66
     1
 40
0.003000
 41
0.003000
  0
VERTEX
  8
EBENE_1
  6
CONTINUOUS
 10
2.513681
 20
-2.642693
  0
VERTEX
  8
EBENE_1
  6
CONTINUOUS
 10
2.513890
 20
-2.641835
  0
SEQEND
  8
0
  0
POLYLINE
  8
EBENE_1
  6
CONTINUOUS
 66
     1
 40
0.003000
 41
0.003000
  0
VERTEX
  8
EBENE_1
  6
CONTINUOUS
 10
2.513890
 20
-2.641835
  0
VERTEX
  8
EBENE_1
  6
CONTINUOUS
 10
2.514531
 20
-2.641402
  0
SEQEND
  8
0
  0
POLYLINE
  8
EBENE_1
  6
CONTINUOUS
 66
     1
 40
0.003000
 41
0.003000
  0
VERTEX
  8
EBENE_1
  6
CONTINUOUS
 10
2.514531
 20
-2.641402
  0
VERTEX
  8
EBENE_1
  6
CONTINUOUS
 10
2.515598
 20
-2.640984
  0
SEQEND
  8
0
  0
POLYLINE
  8
EBENE_1
  6
CONTINUOUS
 66
     1
 40
0.003000
 41
0.003000
  0
VERTEX
  8
EBENE_1
  6
CONTINUOUS
 10
2.515598
 20
-2.640984
  0
VERTEX
  8
EBENE_1
  6
CONTINUOUS
 10
2.516890
 20
-2.640764
  0
SEQEND
  8
0
  0
POLYLINE
  8
EBENE_1
  6
CONTINUOUS
 66
     1
 40
0.003000
 41
0.003000
  0
VERTEX
  8
EBENE_1
  6
CONTINUOUS
 10
2.516890
 20
-2.640764
  0
VERTEX
  8
EBENE_1
  6
CONTINUOUS
 10
2.518815
 20
-2.640984
  0
SEQEND
  8
0
  0
POLYLINE
  8
EBENE_1
  6
CONTINUOUS
 66
     1
 40
0.003000
 41
0.003000
  0
VERTEX
  8
EBENE_1
  6
CONTINUOUS
 10
2.518815
 20
-2.640984
  0
VERTEX
  8
EBENE_1
  6
CONTINUOUS
 10
2.520307
 20
-2.641402
  0
SEQEND
  8
0
  0
POLYLINE
  8
EBENE_1
  6
CONTINUOUS
 66
     1
 40
0.003000
 41
0.003000
  0
VERTEX
  8
EBENE_1
  6
CONTINUOUS
 10
2.520307
 20
-2.641402
  0
VERTEX
  8
EBENE_1
  6
CONTINUOUS
 10
2.520953
 20
-2.642051
  0
SEQEND
  8
0
  0
POLYLINE
  8
EBENE_1
  6
CONTINUOUS
 66
     1
 40
0.003000
 41
0.003000
  0
VERTEX
  8
EBENE_1
  6
CONTINUOUS
 10
2.520953
 20
-2.642051
  0
VERTEX
  8
EBENE_1
  6
CONTINUOUS
 10
2.521165
 20
-2.642902
  0
SEQEND
  8
0
  0
POLYLINE
  8
EBENE_1
  6
CONTINUOUS
 66
     1
 40
0.003000
 41
0.003000
  0
VERTEX
  8
EBENE_1
  6
CONTINUOUS
 10
2.521165
 20
-2.642902
  0
VERTEX
  8
EBENE_1
  6
CONTINUOUS
 10
2.523941
 20
-2.642902
  0
SEQEND
  8
0
  0
POLYLINE
  8
EBENE_1
  6
CONTINUOUS
 66
     1
 40
0.003000
 41
0.003000
  0
VERTEX
  8
EBENE_1
  6
CONTINUOUS
 10
2.486728
 20
-2.642902
  0
VERTEX
  8
EBENE_1
  6
CONTINUOUS
 10
2.486516
 20
-2.641835
  0
SEQEND
  8
0
  0
POLYLINE
  8
EBENE_1
  6
CONTINUOUS
 66
     1
 40
0.003000
 41
0.003000
  0
VERTEX
  8
EBENE_1
  6
CONTINUOUS
 10
2.486516
 20
-2.641835
  0
VERTEX
  8
EBENE_1
  6
CONTINUOUS
 10
2.486299
 20
-2.640984
  0
SEQEND
  8
0
  0
POLYLINE
  8
EBENE_1
  6
CONTINUOUS
 66
     1
 40
0.003000
 41
0.003000
  0
VERTEX
  8
EBENE_1
  6
CONTINUOUS
 10
2.486299
 20
-2.640984
  0
VERTEX
  8
EBENE_1
  6
CONTINUOUS
 10
2.485657
 20
-2.640335
  0
SEQEND
  8
0
  0
POLYLINE
  8
EBENE_1
  6
CONTINUOUS
 66
     1
 40
0.003000
 41
0.003000
  0
VERTEX
  8
EBENE_1
  6
CONTINUOUS
 10
2.485657
 20
-2.640335
  0
VERTEX
  8
EBENE_1
  6
CONTINUOUS
 10
2.485020
 20
-2.639913
  0
SEQEND
  8
0
  0
POLYLINE
  8
EBENE_1
  6
CONTINUOUS
 66
     1
 40
0.003000
 41
0.003000
  0
VERTEX
  8
EBENE_1
  6
CONTINUOUS
 10
2.485020
 20
-2.639913
  0
VERTEX
  8
EBENE_1
  6
CONTINUOUS
 10
2.483949
 20
-2.639484
  0
SEQEND
  8
0
  0
POLYLINE
  8
EBENE_1
  6
CONTINUOUS
 66
     1
 40
0.003000
 41
0.003000
  0
VERTEX
  8
EBENE_1
  6
CONTINUOUS
 10
2.483949
 20
-2.639484
  0
VERTEX
  8
EBENE_1
  6
CONTINUOUS
 10
2.482661
 20
-2.639264
  0
SEQEND
  8
0
  0
POLYLINE
  8
EBENE_1
  6
CONTINUOUS
 66
     1
 40
0.003000
 41
0.003000
  0
VERTEX
  8
EBENE_1
  6
CONTINUOUS
 10
2.482661
 20
-2.639264
  0
VERTEX
  8
EBENE_1
  6
CONTINUOUS
 10
2.481382
 20
-2.639055
  0
SEQEND
  8
0
  0
POLYLINE
  8
EBENE_1
  6
CONTINUOUS
 66
     1
 40
0.003000
 41
0.003000
  0
VERTEX
  8
EBENE_1
  6
CONTINUOUS
 10
2.481382
 20
-2.639055
  0
VERTEX
  8
EBENE_1
  6
CONTINUOUS
 10
2.479886
 20
-2.639055
  0
SEQEND
  8
0
  0
POLYLINE
  8
EBENE_1
  6
CONTINUOUS
 66
     1
 40
0.003000
 41
0.003000
  0
VERTEX
  8
EBENE_1
  6
CONTINUOUS
 10
2.479886
 20
-2.639055
  0
VERTEX
  8
EBENE_1
  6
CONTINUOUS
 10
2.478386
 20
-2.639055
  0
SEQEND
  8
0
  0
POLYLINE
  8
EBENE_1
  6
CONTINUOUS
 66
     1
 40
0.003000
 41
0.003000
  0
VERTEX
  8
EBENE_1
  6
CONTINUOUS
 10
2.478386
 20
-2.639055
  0
VERTEX
  8
EBENE_1
  6
CONTINUOUS
 10
2.476890
 20
-2.639264
  0
SEQEND
  8
0
  0
POLYLINE
  8
EBENE_1
  6
CONTINUOUS
 66
     1
 40
0.003000
 41
0.003000
  0
VERTEX
  8
EBENE_1
  6
CONTINUOUS
 10
2.476890
 20
-2.639264
  0
VERTEX
  8
EBENE_1
  6
CONTINUOUS
 10
2.475819
 20
-2.639693
  0
SEQEND
  8
0
  0
POLYLINE
  8
EBENE_1
  6
CONTINUOUS
 66
     1
 40
0.003000
 41
0.003000
  0
VERTEX
  8
EBENE_1
  6
CONTINUOUS
 10
2.475819
 20
-2.639693
  0
VERTEX
  8
EBENE_1
  6
CONTINUOUS
 10
2.474969
 20
-2.640122
  0
SEQEND
  8
0
  0
POLYLINE
  8
EBENE_1
  6
CONTINUOUS
 66
     1
 40
0.003000
 41
0.003000
  0
VERTEX
  8
EBENE_1
  6
CONTINUOUS
 10
2.474969
 20
-2.640122
  0
VERTEX
  8
EBENE_1
  6
CONTINUOUS
 10
2.474319
 20
-2.640764
  0
SEQEND
  8
0
  0
POLYLINE
  8
EBENE_1
  6
CONTINUOUS
 66
     1
 40
0.003000
 41
0.003000
  0
VERTEX
  8
EBENE_1
  6
CONTINUOUS
 10
2.474319
 20
-2.640764
  0
VERTEX
  8
EBENE_1
  6
CONTINUOUS
 10
2.473890
 20
-2.641402
  0
SEQEND
  8
0
  0
POLYLINE
  8
EBENE_1
  6
CONTINUOUS
 66
     1
 40
0.003000
 41
0.003000
  0
VERTEX
  8
EBENE_1
  6
CONTINUOUS
 10
2.473890
 20
-2.641402
  0
VERTEX
  8
EBENE_1
  6
CONTINUOUS
 10
2.473469
 20
-2.642051
  0
SEQEND
  8
0
  0
POLYLINE
  8
EBENE_1
  6
CONTINUOUS
 66
     1
 40
0.003000
 41
0.003000
  0
VERTEX
  8
EBENE_1
  6
CONTINUOUS
 10
2.473469
 20
-2.642051
  0
VERTEX
  8
EBENE_1
  6
CONTINUOUS
 10
2.473469
 20
-2.642693
  0
SEQEND
  8
0
  0
POLYLINE
  8
EBENE_1
  6
CONTINUOUS
 66
     1
 40
0.003000
 41
0.003000
  0
VERTEX
  8
EBENE_1
  6
CONTINUOUS
 10
2.473469
 20
-2.642693
  0
VERTEX
  8
EBENE_1
  6
CONTINUOUS
 10
2.474110
 20
-2.644402
  0
SEQEND
  8
0
  0
POLYLINE
  8
EBENE_1
  6
CONTINUOUS
 66
     1
 40
0.003000
 41
0.003000
  0
VERTEX
  8
EBENE_1
  6
CONTINUOUS
 10
2.474110
 20
-2.644402
  0
VERTEX
  8
EBENE_1
  6
CONTINUOUS
 10
2.475819
 20
-2.645469
  0
SEQEND
  8
0
  0
POLYLINE
  8
EBENE_1
  6
CONTINUOUS
 66
     1
 40
0.003000
 41
0.003000
  0
VERTEX
  8
EBENE_1
  6
CONTINUOUS
 10
2.475819
 20
-2.645469
  0
VERTEX
  8
EBENE_1
  6
CONTINUOUS
 10
2.477528
 20
-2.646110
  0
SEQEND
  8
0
  0
POLYLINE
  8
EBENE_1
  6
CONTINUOUS
 66
     1
 40
0.003000
 41
0.003000
  0
VERTEX
  8
EBENE_1
  6
CONTINUOUS
 10
2.477528
 20
-2.646110
  0
VERTEX
  8
EBENE_1
  6
CONTINUOUS
 10
2.479028
 20
-2.646327
  0
SEQEND
  8
0
  0
POLYLINE
  8
EBENE_1
  6
CONTINUOUS
 66
     1
 40
0.003000
 41
0.003000
  0
VERTEX
  8
EBENE_1
  6
CONTINUOUS
 10
2.479028
 20
-2.646327
  0
VERTEX
  8
EBENE_1
  6
CONTINUOUS
 10
2.480524
 20
-2.646539
  0
SEQEND
  8
0
  0
POLYLINE
  8
EBENE_1
  6
CONTINUOUS
 66
     1
 40
0.003000
 41
0.003000
  0
VERTEX
  8
EBENE_1
  6
CONTINUOUS
 10
2.480524
 20
-2.646539
  0
VERTEX
  8
EBENE_1
  6
CONTINUOUS
 10
2.482232
 20
-2.646756
  0
SEQEND
  8
0
  0
POLYLINE
  8
EBENE_1
  6
CONTINUOUS
 66
     1
 40
0.003000
 41
0.003000
  0
VERTEX
  8
EBENE_1
  6
CONTINUOUS
 10
2.482232
 20
-2.646756
  0
VERTEX
  8
EBENE_1
  6
CONTINUOUS
 10
2.483949
 20
-2.647398
  0
SEQEND
  8
0
  0
POLYLINE
  8
EBENE_1
  6
CONTINUOUS
 66
     1
 40
0.003000
 41
0.003000
  0
VERTEX
  8
EBENE_1
  6
CONTINUOUS
 10
2.483949
 20
-2.647398
  0
VERTEX
  8
EBENE_1
  6
CONTINUOUS
 10
2.484591
 20
-2.648465
  0
SEQEND
  8
0
  0
POLYLINE
  8
EBENE_1
  6
CONTINUOUS
 66
     1
 40
0.003000
 41
0.003000
  0
VERTEX
  8
EBENE_1
  6
CONTINUOUS
 10
2.484591
 20
-2.648465
  0
VERTEX
  8
EBENE_1
  6
CONTINUOUS
 10
2.484161
 20
-2.649535
  0
SEQEND
  8
0
  0
POLYLINE
  8
EBENE_1
  6
CONTINUOUS
 66
     1
 40
0.003000
 41
0.003000
  0
VERTEX
  8
EBENE_1
  6
CONTINUOUS
 10
2.484161
 20
-2.649535
  0
VERTEX
  8
EBENE_1
  6
CONTINUOUS
 10
2.483311
 20
-2.650173
  0
SEQEND
  8
0
  0
POLYLINE
  8
EBENE_1
  6
CONTINUOUS
 66
     1
 40
0.003000
 41
0.003000
  0
VERTEX
  8
EBENE_1
  6
CONTINUOUS
 10
2.483311
 20
-2.650173
  0
VERTEX
  8
EBENE_1
  6
CONTINUOUS
 10
2.482024
 20
-2.650602
  0
SEQEND
  8
0
  0
POLYLINE
  8
EBENE_1
  6
CONTINUOUS
 66
     1
 40
0.003000
 41
0.003000
  0
VERTEX
  8
EBENE_1
  6
CONTINUOUS
 10
2.482024
 20
-2.650602
  0
VERTEX
  8
EBENE_1
  6
CONTINUOUS
 10
2.480524
 20
-2.650602
  0
SEQEND
  8
0
  0
POLYLINE
  8
EBENE_1
  6
CONTINUOUS
 66
     1
 40
0.003000
 41
0.003000
  0
VERTEX
  8
EBENE_1
  6
CONTINUOUS
 10
2.480524
 20
-2.650602
  0
VERTEX
  8
EBENE_1
  6
CONTINUOUS
 10
2.479028
 20
-2.650394
  0
SEQEND
  8
0
  0
POLYLINE
  8
EBENE_1
  6
CONTINUOUS
 66
     1
 40
0.003000
 41
0.003000
  0
VERTEX
  8
EBENE_1
  6
CONTINUOUS
 10
2.479028
 20
-2.650394
  0
VERTEX
  8
EBENE_1
  6
CONTINUOUS
 10
2.477528
 20
-2.649965
  0
SEQEND
  8
0
  0
POLYLINE
  8
EBENE_1
  6
CONTINUOUS
 66
     1
 40
0.003000
 41
0.003000
  0
VERTEX
  8
EBENE_1
  6
CONTINUOUS
 10
2.477528
 20
-2.649965
  0
VERTEX
  8
EBENE_1
  6
CONTINUOUS
 10
2.476457
 20
-2.649323
  0
SEQEND
  8
0
  0
POLYLINE
  8
EBENE_1
  6
CONTINUOUS
 66
     1
 40
0.003000
 41
0.003000
  0
VERTEX
  8
EBENE_1
  6
CONTINUOUS
 10
2.476457
 20
-2.649323
  0
VERTEX
  8
EBENE_1
  6
CONTINUOUS
 10
2.476039
 20
-2.648035
  0
SEQEND
  8
0
  0
POLYLINE
  8
EBENE_1
  6
CONTINUOUS
 66
     1
 40
0.003000
 41
0.003000
  0
VERTEX
  8
EBENE_1
  6
CONTINUOUS
 10
2.476039
 20
-2.648035
  0
VERTEX
  8
EBENE_1
  6
CONTINUOUS
 10
2.473469
 20
-2.648035
  0
SEQEND
  8
0
  0
POLYLINE
  8
EBENE_1
  6
CONTINUOUS
 66
     1
 40
0.003000
 41
0.003000
  0
VERTEX
  8
EBENE_1
  6
CONTINUOUS
 10
2.473469
 20
-2.648035
  0
VERTEX
  8
EBENE_1
  6
CONTINUOUS
 10
2.473469
 20
-2.649323
  0
SEQEND
  8
0
  0
POLYLINE
  8
EBENE_1
  6
CONTINUOUS
 66
     1
 40
0.003000
 41
0.003000
  0
VERTEX
  8
EBENE_1
  6
CONTINUOUS
 10
2.473469
 20
-2.649323
  0
VERTEX
  8
EBENE_1
  6
CONTINUOUS
 10
2.473890
 20
-2.650173
  0
SEQEND
  8
0
  0
POLYLINE
  8
EBENE_1
  6
CONTINUOUS
 66
     1
 40
0.003000
 41
0.003000
  0
VERTEX
  8
EBENE_1
  6
CONTINUOUS
 10
2.473890
 20
-2.650173
  0
VERTEX
  8
EBENE_1
  6
CONTINUOUS
 10
2.474748
 20
-2.651031
  0
SEQEND
  8
0
  0
POLYLINE
  8
EBENE_1
  6
CONTINUOUS
 66
     1
 40
0.003000
 41
0.003000
  0
VERTEX
  8
EBENE_1
  6
CONTINUOUS
 10
2.474748
 20
-2.651031
  0
VERTEX
  8
EBENE_1
  6
CONTINUOUS
 10
2.475610
 20
-2.651461
  0
SEQEND
  8
0
  0
POLYLINE
  8
EBENE_1
  6
CONTINUOUS
 66
     1
 40
0.003000
 41
0.003000
  0
VERTEX
  8
EBENE_1
  6
CONTINUOUS
 10
2.475610
 20
-2.651461
  0
VERTEX
  8
EBENE_1
  6
CONTINUOUS
 10
2.476677
 20
-2.651890
  0
SEQEND
  8
0
  0
POLYLINE
  8
EBENE_1
  6
CONTINUOUS
 66
     1
 40
0.003000
 41
0.003000
  0
VERTEX
  8
EBENE_1
  6
CONTINUOUS
 10
2.476677
 20
-2.651890
  0
VERTEX
  8
EBENE_1
  6
CONTINUOUS
 10
2.477957
 20
-2.652102
  0
SEQEND
  8
0
  0
POLYLINE
  8
EBENE_1
  6
CONTINUOUS
 66
     1
 40
0.003000
 41
0.003000
  0
VERTEX
  8
EBENE_1
  6
CONTINUOUS
 10
2.477957
 20
-2.652102
  0
VERTEX
  8
EBENE_1
  6
CONTINUOUS
 10
2.479244
 20
-2.652311
  0
SEQEND
  8
0
  0
POLYLINE
  8
EBENE_1
  6
CONTINUOUS
 66
     1
 40
0.003000
 41
0.003000
  0
VERTEX
  8
EBENE_1
  6
CONTINUOUS
 10
2.479244
 20
-2.652311
  0
VERTEX
  8
EBENE_1
  6
CONTINUOUS
 10
2.480524
 20
-2.652311
  0
SEQEND
  8
0
  0
POLYLINE
  8
EBENE_1
  6
CONTINUOUS
 66
     1
 40
0.003000
 41
0.003000
  0
VERTEX
  8
EBENE_1
  6
CONTINUOUS
 10
2.480524
 20
-2.652311
  0
VERTEX
  8
EBENE_1
  6
CONTINUOUS
 10
2.481811
 20
-2.652311
  0
SEQEND
  8
0
  0
POLYLINE
  8
EBENE_1
  6
CONTINUOUS
 66
     1
 40
0.003000
 41
0.003000
  0
VERTEX
  8
EBENE_1
  6
CONTINUOUS
 10
2.481811
 20
-2.652311
  0
VERTEX
  8
EBENE_1
  6
CONTINUOUS
 10
2.482882
 20
-2.652102
  0
SEQEND
  8
0
  0
POLYLINE
  8
EBENE_1
  6
CONTINUOUS
 66
     1
 40
0.003000
 41
0.003000
  0
VERTEX
  8
EBENE_1
  6
CONTINUOUS
 10
2.482882
 20
-2.652102
  0
VERTEX
  8
EBENE_1
  6
CONTINUOUS
 10
2.484161
 20
-2.651890
  0
SEQEND
  8
0
  0
POLYLINE
  8
EBENE_1
  6
CONTINUOUS
 66
     1
 40
0.003000
 41
0.003000
  0
VERTEX
  8
EBENE_1
  6
CONTINUOUS
 10
2.484161
 20
-2.651890
  0
VERTEX
  8
EBENE_1
  6
CONTINUOUS
 10
2.485228
 20
-2.651461
  0
SEQEND
  8
0
  0
POLYLINE
  8
EBENE_1
  6
CONTINUOUS
 66
     1
 40
0.003000
 41
0.003000
  0
VERTEX
  8
EBENE_1
  6
CONTINUOUS
 10
2.485228
 20
-2.651461
  0
VERTEX
  8
EBENE_1
  6
CONTINUOUS
 10
2.486299
 20
-2.651031
  0
SEQEND
  8
0
  0
POLYLINE
  8
EBENE_1
  6
CONTINUOUS
 66
     1
 40
0.003000
 41
0.003000
  0
VERTEX
  8
EBENE_1
  6
CONTINUOUS
 10
2.486299
 20
-2.651031
  0
VERTEX
  8
EBENE_1
  6
CONTINUOUS
 10
2.486937
 20
-2.650394
  0
SEQEND
  8
0
  0
POLYLINE
  8
EBENE_1
  6
CONTINUOUS
 66
     1
 40
0.003000
 41
0.003000
  0
VERTEX
  8
EBENE_1
  6
CONTINUOUS
 10
2.486937
 20
-2.650394
  0
VERTEX
  8
EBENE_1
  6
CONTINUOUS
 10
2.487366
 20
-2.649535
  0
SEQEND
  8
0
  0
POLYLINE
  8
EBENE_1
  6
CONTINUOUS
 66
     1
 40
0.003000
 41
0.003000
  0
VERTEX
  8
EBENE_1
  6
CONTINUOUS
 10
2.487366
 20
-2.649535
  0
VERTEX
  8
EBENE_1
  6
CONTINUOUS
 10
2.487587
 20
-2.648465
  0
SEQEND
  8
0
  0
POLYLINE
  8
EBENE_1
  6
CONTINUOUS
 66
     1
 40
0.003000
 41
0.003000
  0
VERTEX
  8
EBENE_1
  6
CONTINUOUS
 10
2.487587
 20
-2.648465
  0
VERTEX
  8
EBENE_1
  6
CONTINUOUS
 10
2.487157
 20
-2.646969
  0
SEQEND
  8
0
  0
POLYLINE
  8
EBENE_1
  6
CONTINUOUS
 66
     1
 40
0.003000
 41
0.003000
  0
VERTEX
  8
EBENE_1
  6
CONTINUOUS
 10
2.487157
 20
-2.646969
  0
VERTEX
  8
EBENE_1
  6
CONTINUOUS
 10
2.485870
 20
-2.645898
  0
SEQEND
  8
0
  0
POLYLINE
  8
EBENE_1
  6
CONTINUOUS
 66
     1
 40
0.003000
 41
0.003000
  0
VERTEX
  8
EBENE_1
  6
CONTINUOUS
 10
2.485870
 20
-2.645898
  0
VERTEX
  8
EBENE_1
  6
CONTINUOUS
 10
2.483949
 20
-2.645260
  0
SEQEND
  8
0
  0
POLYLINE
  8
EBENE_1
  6
CONTINUOUS
 66
     1
 40
0.003000
 41
0.003000
  0
VERTEX
  8
EBENE_1
  6
CONTINUOUS
 10
2.483949
 20
-2.645260
  0
VERTEX
  8
EBENE_1
  6
CONTINUOUS
 10
2.481382
 20
-2.644831
  0
SEQEND
  8
0
  0
POLYLINE
  8
EBENE_1
  6
CONTINUOUS
 66
     1
 40
0.003000
 41
0.003000
  0
VERTEX
  8
EBENE_1
  6
CONTINUOUS
 10
2.481382
 20
-2.644831
  0
VERTEX
  8
EBENE_1
  6
CONTINUOUS
 10
2.479028
 20
-2.644402
  0
SEQEND
  8
0
  0
POLYLINE
  8
EBENE_1
  6
CONTINUOUS
 66
     1
 40
0.003000
 41
0.003000
  0
VERTEX
  8
EBENE_1
  6
CONTINUOUS
 10
2.479028
 20
-2.644402
  0
VERTEX
  8
EBENE_1
  6
CONTINUOUS
 10
2.477528
 20
-2.643972
  0
SEQEND
  8
0
  0
POLYLINE
  8
EBENE_1
  6
CONTINUOUS
 66
     1
 40
0.003000
 41
0.003000
  0
VERTEX
  8
EBENE_1
  6
CONTINUOUS
 10
2.477528
 20
-2.643972
  0
VERTEX
  8
EBENE_1
  6
CONTINUOUS
 10
2.476677
 20
-2.643551
  0
SEQEND
  8
0
  0
POLYLINE
  8
EBENE_1
  6
CONTINUOUS
 66
     1
 40
0.003000
 41
0.003000
  0
VERTEX
  8
EBENE_1
  6
CONTINUOUS
 10
2.476677
 20
-2.643551
  0
VERTEX
  8
EBENE_1
  6
CONTINUOUS
 10
2.476457
 20
-2.642693
  0
SEQEND
  8
0
  0
POLYLINE
  8
EBENE_1
  6
CONTINUOUS
 66
     1
 40
0.003000
 41
0.003000
  0
VERTEX
  8
EBENE_1
  6
CONTINUOUS
 10
2.476457
 20
-2.642693
  0
VERTEX
  8
EBENE_1
  6
CONTINUOUS
 10
2.476677
 20
-2.641835
  0
SEQEND
  8
0
  0
POLYLINE
  8
EBENE_1
  6
CONTINUOUS
 66
     1
 40
0.003000
 41
0.003000
  0
VERTEX
  8
EBENE_1
  6
CONTINUOUS
 10
2.476677
 20
-2.641835
  0
VERTEX
  8
EBENE_1
  6
CONTINUOUS
 10
2.477319
 20
-2.641402
  0
SEQEND
  8
0
  0
POLYLINE
  8
EBENE_1
  6
CONTINUOUS
 66
     1
 40
0.003000
 41
0.003000
  0
VERTEX
  8
EBENE_1
  6
CONTINUOUS
 10
2.477319
 20
-2.641402
  0
VERTEX
  8
EBENE_1
  6
CONTINUOUS
 10
2.478386
 20
-2.640984
  0
SEQEND
  8
0
  0
POLYLINE
  8
EBENE_1
  6
CONTINUOUS
 66
     1
 40
0.003000
 41
0.003000
  0
VERTEX
  8
EBENE_1
  6
CONTINUOUS
 10
2.478386
 20
-2.640984
  0
VERTEX
  8
EBENE_1
  6
CONTINUOUS
 10
2.479886
 20
-2.640764
  0
SEQEND
  8
0
  0
POLYLINE
  8
EBENE_1
  6
CONTINUOUS
 66
     1
 40
0.003000
 41
0.003000
  0
VERTEX
  8
EBENE_1
  6
CONTINUOUS
 10
2.479886
 20
-2.640764
  0
VERTEX
  8
EBENE_1
  6
CONTINUOUS
 10
2.481811
 20
-2.640984
  0
SEQEND
  8
0
  0
POLYLINE
  8
EBENE_1
  6
CONTINUOUS
 66
     1
 40
0.003000
 41
0.003000
  0
VERTEX
  8
EBENE_1
  6
CONTINUOUS
 10
2.481811
 20
-2.640984
  0
VERTEX
  8
EBENE_1
  6
CONTINUOUS
 10
2.483091
 20
-2.641402
  0
SEQEND
  8
0
  0
POLYLINE
  8
EBENE_1
  6
CONTINUOUS
 66
     1
 40
0.003000
 41
0.003000
  0
VERTEX
  8
EBENE_1
  6
CONTINUOUS
 10
2.483091
 20
-2.641402
  0
VERTEX
  8
EBENE_1
  6
CONTINUOUS
 10
2.483732
 20
-2.642051
  0
SEQEND
  8
0
  0
POLYLINE
  8
EBENE_1
  6
CONTINUOUS
 66
     1
 40
0.003000
 41
0.003000
  0
VERTEX
  8
EBENE_1
  6
CONTINUOUS
 10
2.483732
 20
-2.642051
  0
VERTEX
  8
EBENE_1
  6
CONTINUOUS
 10
2.483949
 20
-2.642902
  0
SEQEND
  8
0
  0
POLYLINE
  8
EBENE_1
  6
CONTINUOUS
 66
     1
 40
0.003000
 41
0.003000
  0
VERTEX
  8
EBENE_1
  6
CONTINUOUS
 10
2.483949
 20
-2.642902
  0
VERTEX
  8
EBENE_1
  6
CONTINUOUS
 10
2.486728
 20
-2.642902
  0
SEQEND
  8
0
  0
POLYLINE
  8
EBENE_1
  6
CONTINUOUS
 66
     1
 40
0.003000
 41
0.003000
  0
VERTEX
  8
EBENE_1
  6
CONTINUOUS
 10
2.597949
 20
-2.643122
  0
VERTEX
  8
EBENE_1
  6
CONTINUOUS
 10
2.597736
 20
-2.642051
  0
SEQEND
  8
0
  0
POLYLINE
  8
EBENE_1
  6
CONTINUOUS
 66
     1
 40
0.003000
 41
0.003000
  0
VERTEX
  8
EBENE_1
  6
CONTINUOUS
 10
2.597736
 20
-2.642051
  0
VERTEX
  8
EBENE_1
  6
CONTINUOUS
 10
2.597520
 20
-2.641193
  0
SEQEND
  8
0
  0
POLYLINE
  8
EBENE_1
  6
CONTINUOUS
 66
     1
 40
0.003000
 41
0.003000
  0
VERTEX
  8
EBENE_1
  6
CONTINUOUS
 10
2.597520
 20
-2.641193
  0
VERTEX
  8
EBENE_1
  6
CONTINUOUS
 10
2.596878
 20
-2.640555
  0
SEQEND
  8
0
  0
POLYLINE
  8
EBENE_1
  6
CONTINUOUS
 66
     1
 40
0.003000
 41
0.003000
  0
VERTEX
  8
EBENE_1
  6
CONTINUOUS
 10
2.596878
 20
-2.640555
  0
VERTEX
  8
EBENE_1
  6
CONTINUOUS
 10
2.596240
 20
-2.640122
  0
SEQEND
  8
0
  0
POLYLINE
  8
EBENE_1
  6
CONTINUOUS
 66
     1
 40
0.003000
 41
0.003000
  0
VERTEX
  8
EBENE_1
  6
CONTINUOUS
 10
2.596240
 20
-2.640122
  0
VERTEX
  8
EBENE_1
  6
CONTINUOUS
 10
2.595169
 20
-2.639693
  0
SEQEND
  8
0
  0
POLYLINE
  8
EBENE_1
  6
CONTINUOUS
 66
     1
 40
0.003000
 41
0.003000
  0
VERTEX
  8
EBENE_1
  6
CONTINUOUS
 10
2.595169
 20
-2.639693
  0
VERTEX
  8
EBENE_1
  6
CONTINUOUS
 10
2.593882
 20
-2.639484
  0
SEQEND
  8
0
  0
POLYLINE
  8
EBENE_1
  6
CONTINUOUS
 66
     1
 40
0.003000
 41
0.003000
  0
VERTEX
  8
EBENE_1
  6
CONTINUOUS
 10
2.593882
 20
-2.639484
  0
VERTEX
  8
EBENE_1
  6
CONTINUOUS
 10
2.592602
 20
-2.639264
  0
SEQEND
  8
0
  0
POLYLINE
  8
EBENE_1
  6
CONTINUOUS
 66
     1
 40
0.003000
 41
0.003000
  0
VERTEX
  8
EBENE_1
  6
CONTINUOUS
 10
2.592602
 20
-2.639264
  0
VERTEX
  8
EBENE_1
  6
CONTINUOUS
 10
2.591106
 20
-2.639264
  0
SEQEND
  8
0
  0
POLYLINE
  8
EBENE_1
  6
CONTINUOUS
 66
     1
 40
0.003000
 41
0.003000
  0
VERTEX
  8
EBENE_1
  6
CONTINUOUS
 10
2.591106
 20
-2.639264
  0
VERTEX
  8
EBENE_1
  6
CONTINUOUS
 10
2.588327
 20
-2.639484
  0
SEQEND
  8
0
  0
POLYLINE
  8
EBENE_1
  6
CONTINUOUS
 66
     1
 40
0.003000
 41
0.003000
  0
VERTEX
  8
EBENE_1
  6
CONTINUOUS
 10
2.588327
 20
-2.639484
  0
VERTEX
  8
EBENE_1
  6
CONTINUOUS
 10
2.586398
 20
-2.640335
  0
SEQEND
  8
0
  0
POLYLINE
  8
EBENE_1
  6
CONTINUOUS
 66
     1
 40
0.003000
 41
0.003000
  0
VERTEX
  8
EBENE_1
  6
CONTINUOUS
 10
2.586398
 20
-2.640335
  0
VERTEX
  8
EBENE_1
  6
CONTINUOUS
 10
2.585331
 20
-2.641622
  0
SEQEND
  8
0
  0
POLYLINE
  8
EBENE_1
  6
CONTINUOUS
 66
     1
 40
0.003000
 41
0.003000
  0
VERTEX
  8
EBENE_1
  6
CONTINUOUS
 10
2.585331
 20
-2.641622
  0
VERTEX
  8
EBENE_1
  6
CONTINUOUS
 10
2.584902
 20
-2.642902
  0
SEQEND
  8
0
  0
POLYLINE
  8
EBENE_1
  6
CONTINUOUS
 66
     1
 40
0.003000
 41
0.003000
  0
VERTEX
  8
EBENE_1
  6
CONTINUOUS
 10
2.584902
 20
-2.642902
  0
VERTEX
  8
EBENE_1
  6
CONTINUOUS
 10
2.585539
 20
-2.644618
  0
SEQEND
  8
0
  0
POLYLINE
  8
EBENE_1
  6
CONTINUOUS
 66
     1
 40
0.003000
 41
0.003000
  0
VERTEX
  8
EBENE_1
  6
CONTINUOUS
 10
2.585539
 20
-2.644618
  0
VERTEX
  8
EBENE_1
  6
CONTINUOUS
 10
2.587039
 20
-2.645689
  0
SEQEND
  8
0
  0
POLYLINE
  8
EBENE_1
  6
CONTINUOUS
 66
     1
 40
0.003000
 41
0.003000
  0
VERTEX
  8
EBENE_1
  6
CONTINUOUS
 10
2.587039
 20
-2.645689
  0
VERTEX
  8
EBENE_1
  6
CONTINUOUS
 10
2.588969
 20
-2.646327
  0
SEQEND
  8
0
  0
POLYLINE
  8
EBENE_1
  6
CONTINUOUS
 66
     1
 40
0.003000
 41
0.003000
  0
VERTEX
  8
EBENE_1
  6
CONTINUOUS
 10
2.588969
 20
-2.646327
  0
VERTEX
  8
EBENE_1
  6
CONTINUOUS
 10
2.590256
 20
-2.646539
  0
SEQEND
  8
0
  0
POLYLINE
  8
EBENE_1
  6
CONTINUOUS
 66
     1
 40
0.003000
 41
0.003000
  0
VERTEX
  8
EBENE_1
  6
CONTINUOUS
 10
2.590256
 20
-2.646539
  0
VERTEX
  8
EBENE_1
  6
CONTINUOUS
 10
2.591744
 20
-2.646756
  0
SEQEND
  8
0
  0
POLYLINE
  8
EBENE_1
  6
CONTINUOUS
 66
     1
 40
0.003000
 41
0.003000
  0
VERTEX
  8
EBENE_1
  6
CONTINUOUS
 10
2.591744
 20
-2.646756
  0
VERTEX
  8
EBENE_1
  6
CONTINUOUS
 10
2.593461
 20
-2.646969
  0
SEQEND
  8
0
  0
POLYLINE
  8
EBENE_1
  6
CONTINUOUS
 66
     1
 40
0.003000
 41
0.003000
  0
VERTEX
  8
EBENE_1
  6
CONTINUOUS
 10
2.593461
 20
-2.646969
  0
VERTEX
  8
EBENE_1
  6
CONTINUOUS
 10
2.595169
 20
-2.647606
  0
SEQEND
  8
0
  0
POLYLINE
  8
EBENE_1
  6
CONTINUOUS
 66
     1
 40
0.003000
 41
0.003000
  0
VERTEX
  8
EBENE_1
  6
CONTINUOUS
 10
2.595169
 20
-2.647606
  0
VERTEX
  8
EBENE_1
  6
CONTINUOUS
 10
2.595811
 20
-2.648465
  0
SEQEND
  8
0
  0
POLYLINE
  8
EBENE_1
  6
CONTINUOUS
 66
     1
 40
0.003000
 41
0.003000
  0
VERTEX
  8
EBENE_1
  6
CONTINUOUS
 10
2.595811
 20
-2.648465
  0
VERTEX
  8
EBENE_1
  6
CONTINUOUS
 10
2.595382
 20
-2.649744
  0
SEQEND
  8
0
  0
POLYLINE
  8
EBENE_1
  6
CONTINUOUS
 66
     1
 40
0.003000
 41
0.003000
  0
VERTEX
  8
EBENE_1
  6
CONTINUOUS
 10
2.595382
 20
-2.649744
  0
VERTEX
  8
EBENE_1
  6
CONTINUOUS
 10
2.594531
 20
-2.650394
  0
SEQEND
  8
0
  0
POLYLINE
  8
EBENE_1
  6
CONTINUOUS
 66
     1
 40
0.003000
 41
0.003000
  0
VERTEX
  8
EBENE_1
  6
CONTINUOUS
 10
2.594531
 20
-2.650394
  0
VERTEX
  8
EBENE_1
  6
CONTINUOUS
 10
2.593244
 20
-2.650815
  0
SEQEND
  8
0
  0
POLYLINE
  8
EBENE_1
  6
CONTINUOUS
 66
     1
 40
0.003000
 41
0.003000
  0
VERTEX
  8
EBENE_1
  6
CONTINUOUS
 10
2.593244
 20
-2.650815
  0
VERTEX
  8
EBENE_1
  6
CONTINUOUS
 10
2.591744
 20
-2.650815
  0
SEQEND
  8
0
  0
POLYLINE
  8
EBENE_1
  6
CONTINUOUS
 66
     1
 40
0.003000
 41
0.003000
  0
VERTEX
  8
EBENE_1
  6
CONTINUOUS
 10
2.591744
 20
-2.650815
  0
VERTEX
  8
EBENE_1
  6
CONTINUOUS
 10
2.590256
 20
-2.650602
  0
SEQEND
  8
0
  0
POLYLINE
  8
EBENE_1
  6
CONTINUOUS
 66
     1
 40
0.003000
 41
0.003000
  0
VERTEX
  8
EBENE_1
  6
CONTINUOUS
 10
2.590256
 20
-2.650602
  0
VERTEX
  8
EBENE_1
  6
CONTINUOUS
 10
2.588756
 20
-2.650173
  0
SEQEND
  8
0
  0
POLYLINE
  8
EBENE_1
  6
CONTINUOUS
 66
     1
 40
0.003000
 41
0.003000
  0
VERTEX
  8
EBENE_1
  6
CONTINUOUS
 10
2.588756
 20
-2.650173
  0
VERTEX
  8
EBENE_1
  6
CONTINUOUS
 10
2.587898
 20
-2.649323
  0
SEQEND
  8
0
  0
POLYLINE
  8
EBENE_1
  6
CONTINUOUS
 66
     1
 40
0.003000
 41
0.003000
  0
VERTEX
  8
EBENE_1
  6
CONTINUOUS
 10
2.587898
 20
-2.649323
  0
VERTEX
  8
EBENE_1
  6
CONTINUOUS
 10
2.587469
 20
-2.648035
  0
SEQEND
  8
0
  0
POLYLINE
  8
EBENE_1
  6
CONTINUOUS
 66
     1
 40
0.003000
 41
0.003000
  0
VERTEX
  8
EBENE_1
  6
CONTINUOUS
 10
2.587469
 20
-2.648035
  0
VERTEX
  8
EBENE_1
  6
CONTINUOUS
 10
2.584689
 20
-2.648035
  0
SEQEND
  8
0
  0
POLYLINE
  8
EBENE_1
  6
CONTINUOUS
 66
     1
 40
0.003000
 41
0.003000
  0
VERTEX
  8
EBENE_1
  6
CONTINUOUS
 10
2.584689
 20
-2.648035
  0
VERTEX
  8
EBENE_1
  6
CONTINUOUS
 10
2.584689
 20
-2.649323
  0
SEQEND
  8
0
  0
POLYLINE
  8
EBENE_1
  6
CONTINUOUS
 66
     1
 40
0.003000
 41
0.003000
  0
VERTEX
  8
EBENE_1
  6
CONTINUOUS
 10
2.584689
 20
-2.649323
  0
VERTEX
  8
EBENE_1
  6
CONTINUOUS
 10
2.585122
 20
-2.650394
  0
SEQEND
  8
0
  0
POLYLINE
  8
EBENE_1
  6
CONTINUOUS
 66
     1
 40
0.003000
 41
0.003000
  0
VERTEX
  8
EBENE_1
  6
CONTINUOUS
 10
2.585122
 20
-2.650394
  0
VERTEX
  8
EBENE_1
  6
CONTINUOUS
 10
2.585969
 20
-2.651244
  0
SEQEND
  8
0
  0
POLYLINE
  8
EBENE_1
  6
CONTINUOUS
 66
     1
 40
0.003000
 41
0.003000
  0
VERTEX
  8
EBENE_1
  6
CONTINUOUS
 10
2.585969
 20
-2.651244
  0
VERTEX
  8
EBENE_1
  6
CONTINUOUS
 10
2.586831
 20
-2.651673
  0
SEQEND
  8
0
  0
POLYLINE
  8
EBENE_1
  6
CONTINUOUS
 66
     1
 40
0.003000
 41
0.003000
  0
VERTEX
  8
EBENE_1
  6
CONTINUOUS
 10
2.586831
 20
-2.651673
  0
VERTEX
  8
EBENE_1
  6
CONTINUOUS
 10
2.587898
 20
-2.652102
  0
SEQEND
  8
0
  0
POLYLINE
  8
EBENE_1
  6
CONTINUOUS
 66
     1
 40
0.003000
 41
0.003000
  0
VERTEX
  8
EBENE_1
  6
CONTINUOUS
 10
2.587898
 20
-2.652102
  0
VERTEX
  8
EBENE_1
  6
CONTINUOUS
 10
2.589177
 20
-2.652311
  0
SEQEND
  8
0
  0
POLYLINE
  8
EBENE_1
  6
CONTINUOUS
 66
     1
 40
0.003000
 41
0.003000
  0
VERTEX
  8
EBENE_1
  6
CONTINUOUS
 10
2.589177
 20
-2.652311
  0
VERTEX
  8
EBENE_1
  6
CONTINUOUS
 10
2.590465
 20
-2.652531
  0
SEQEND
  8
0
  0
POLYLINE
  8
EBENE_1
  6
CONTINUOUS
 66
     1
 40
0.003000
 41
0.003000
  0
VERTEX
  8
EBENE_1
  6
CONTINUOUS
 10
2.590465
 20
-2.652531
  0
VERTEX
  8
EBENE_1
  6
CONTINUOUS
 10
2.591744
 20
-2.652531
  0
SEQEND
  8
0
  0
POLYLINE
  8
EBENE_1
  6
CONTINUOUS
 66
     1
 40
0.003000
 41
0.003000
  0
VERTEX
  8
EBENE_1
  6
CONTINUOUS
 10
2.591744
 20
-2.652531
  0
VERTEX
  8
EBENE_1
  6
CONTINUOUS
 10
2.593031
 20
-2.652531
  0
SEQEND
  8
0
  0
POLYLINE
  8
EBENE_1
  6
CONTINUOUS
 66
     1
 40
0.003000
 41
0.003000
  0
VERTEX
  8
EBENE_1
  6
CONTINUOUS
 10
2.593031
 20
-2.652531
  0
VERTEX
  8
EBENE_1
  6
CONTINUOUS
 10
2.594102
 20
-2.652311
  0
SEQEND
  8
0
  0
POLYLINE
  8
EBENE_1
  6
CONTINUOUS
 66
     1
 40
0.003000
 41
0.003000
  0
VERTEX
  8
EBENE_1
  6
CONTINUOUS
 10
2.594102
 20
-2.652311
  0
VERTEX
  8
EBENE_1
  6
CONTINUOUS
 10
2.595382
 20
-2.652102
  0
SEQEND
  8
0
  0
POLYLINE
  8
EBENE_1
  6
CONTINUOUS
 66
     1
 40
0.003000
 41
0.003000
  0
VERTEX
  8
EBENE_1
  6
CONTINUOUS
 10
2.595382
 20
-2.652102
  0
VERTEX
  8
EBENE_1
  6
CONTINUOUS
 10
2.596449
 20
-2.651673
  0
SEQEND
  8
0
  0
POLYLINE
  8
EBENE_1
  6
CONTINUOUS
 66
     1
 40
0.003000
 41
0.003000
  0
VERTEX
  8
EBENE_1
  6
CONTINUOUS
 10
2.596449
 20
-2.651673
  0
VERTEX
  8
EBENE_1
  6
CONTINUOUS
 10
2.597520
 20
-2.651031
  0
SEQEND
  8
0
  0
POLYLINE
  8
EBENE_1
  6
CONTINUOUS
 66
     1
 40
0.003000
 41
0.003000
  0
VERTEX
  8
EBENE_1
  6
CONTINUOUS
 10
2.597520
 20
-2.651031
  0
VERTEX
  8
EBENE_1
  6
CONTINUOUS
 10
2.598165
 20
-2.650394
  0
SEQEND
  8
0
  0
POLYLINE
  8
EBENE_1
  6
CONTINUOUS
 66
     1
 40
0.003000
 41
0.003000
  0
VERTEX
  8
EBENE_1
  6
CONTINUOUS
 10
2.598165
 20
-2.650394
  0
VERTEX
  8
EBENE_1
  6
CONTINUOUS
 10
2.598587
 20
-2.649744
  0
SEQEND
  8
0
  0
POLYLINE
  8
EBENE_1
  6
CONTINUOUS
 66
     1
 40
0.003000
 41
0.003000
  0
VERTEX
  8
EBENE_1
  6
CONTINUOUS
 10
2.598587
 20
-2.649744
  0
VERTEX
  8
EBENE_1
  6
CONTINUOUS
 10
2.598807
 20
-2.648677
  0
SEQEND
  8
0
  0
POLYLINE
  8
EBENE_1
  6
CONTINUOUS
 66
     1
 40
0.003000
 41
0.003000
  0
VERTEX
  8
EBENE_1
  6
CONTINUOUS
 10
2.598807
 20
-2.648677
  0
VERTEX
  8
EBENE_1
  6
CONTINUOUS
 10
2.598378
 20
-2.646969
  0
SEQEND
  8
0
  0
POLYLINE
  8
EBENE_1
  6
CONTINUOUS
 66
     1
 40
0.003000
 41
0.003000
  0
VERTEX
  8
EBENE_1
  6
CONTINUOUS
 10
2.598378
 20
-2.646969
  0
VERTEX
  8
EBENE_1
  6
CONTINUOUS
 10
2.597098
 20
-2.646110
  0
SEQEND
  8
0
  0
POLYLINE
  8
EBENE_1
  6
CONTINUOUS
 66
     1
 40
0.003000
 41
0.003000
  0
VERTEX
  8
EBENE_1
  6
CONTINUOUS
 10
2.597098
 20
-2.646110
  0
VERTEX
  8
EBENE_1
  6
CONTINUOUS
 10
2.595169
 20
-2.645469
  0
SEQEND
  8
0
  0
POLYLINE
  8
EBENE_1
  6
CONTINUOUS
 66
     1
 40
0.003000
 41
0.003000
  0
VERTEX
  8
EBENE_1
  6
CONTINUOUS
 10
2.595169
 20
-2.645469
  0
VERTEX
  8
EBENE_1
  6
CONTINUOUS
 10
2.592602
 20
-2.645039
  0
SEQEND
  8
0
  0
POLYLINE
  8
EBENE_1
  6
CONTINUOUS
 66
     1
 40
0.003000
 41
0.003000
  0
VERTEX
  8
EBENE_1
  6
CONTINUOUS
 10
2.592602
 20
-2.645039
  0
VERTEX
  8
EBENE_1
  6
CONTINUOUS
 10
2.590256
 20
-2.644618
  0
SEQEND
  8
0
  0
POLYLINE
  8
EBENE_1
  6
CONTINUOUS
 66
     1
 40
0.003000
 41
0.003000
  0
VERTEX
  8
EBENE_1
  6
CONTINUOUS
 10
2.590256
 20
-2.644618
  0
VERTEX
  8
EBENE_1
  6
CONTINUOUS
 10
2.588756
 20
-2.644189
  0
SEQEND
  8
0
  0
POLYLINE
  8
EBENE_1
  6
CONTINUOUS
 66
     1
 40
0.003000
 41
0.003000
  0
VERTEX
  8
EBENE_1
  6
CONTINUOUS
 10
2.588756
 20
-2.644189
  0
VERTEX
  8
EBENE_1
  6
CONTINUOUS
 10
2.587898
 20
-2.643760
  0
SEQEND
  8
0
  0
POLYLINE
  8
EBENE_1
  6
CONTINUOUS
 66
     1
 40
0.003000
 41
0.003000
  0
VERTEX
  8
EBENE_1
  6
CONTINUOUS
 10
2.587898
 20
-2.643760
  0
VERTEX
  8
EBENE_1
  6
CONTINUOUS
 10
2.587689
 20
-2.642902
  0
SEQEND
  8
0
  0
POLYLINE
  8
EBENE_1
  6
CONTINUOUS
 66
     1
 40
0.003000
 41
0.003000
  0
VERTEX
  8
EBENE_1
  6
CONTINUOUS
 10
2.587689
 20
-2.642902
  0
VERTEX
  8
EBENE_1
  6
CONTINUOUS
 10
2.587898
 20
-2.642051
  0
SEQEND
  8
0
  0
POLYLINE
  8
EBENE_1
  6
CONTINUOUS
 66
     1
 40
0.003000
 41
0.003000
  0
VERTEX
  8
EBENE_1
  6
CONTINUOUS
 10
2.587898
 20
-2.642051
  0
VERTEX
  8
EBENE_1
  6
CONTINUOUS
 10
2.588539
 20
-2.641622
  0
SEQEND
  8
0
  0
POLYLINE
  8
EBENE_1
  6
CONTINUOUS
 66
     1
 40
0.003000
 41
0.003000
  0
VERTEX
  8
EBENE_1
  6
CONTINUOUS
 10
2.588539
 20
-2.641622
  0
VERTEX
  8
EBENE_1
  6
CONTINUOUS
 10
2.589606
 20
-2.641193
  0
SEQEND
  8
0
  0
POLYLINE
  8
EBENE_1
  6
CONTINUOUS
 66
     1
 40
0.003000
 41
0.003000
  0
VERTEX
  8
EBENE_1
  6
CONTINUOUS
 10
2.589606
 20
-2.641193
  0
VERTEX
  8
EBENE_1
  6
CONTINUOUS
 10
2.591106
 20
-2.640984
  0
SEQEND
  8
0
  0
POLYLINE
  8
EBENE_1
  6
CONTINUOUS
 66
     1
 40
0.003000
 41
0.003000
  0
VERTEX
  8
EBENE_1
  6
CONTINUOUS
 10
2.591106
 20
-2.640984
  0
VERTEX
  8
EBENE_1
  6
CONTINUOUS
 10
2.593031
 20
-2.641193
  0
SEQEND
  8
0
  0
POLYLINE
  8
EBENE_1
  6
CONTINUOUS
 66
     1
 40
0.003000
 41
0.003000
  0
VERTEX
  8
EBENE_1
  6
CONTINUOUS
 10
2.593031
 20
-2.641193
  0
VERTEX
  8
EBENE_1
  6
CONTINUOUS
 10
2.594311
 20
-2.641622
  0
SEQEND
  8
0
  0
POLYLINE
  8
EBENE_1
  6
CONTINUOUS
 66
     1
 40
0.003000
 41
0.003000
  0
VERTEX
  8
EBENE_1
  6
CONTINUOUS
 10
2.594311
 20
-2.641622
  0
VERTEX
  8
EBENE_1
  6
CONTINUOUS
 10
2.594961
 20
-2.642264
  0
SEQEND
  8
0
  0
POLYLINE
  8
EBENE_1
  6
CONTINUOUS
 66
     1
 40
0.003000
 41
0.003000
  0
VERTEX
  8
EBENE_1
  6
CONTINUOUS
 10
2.594961
 20
-2.642264
  0
VERTEX
  8
EBENE_1
  6
CONTINUOUS
 10
2.595169
 20
-2.643122
  0
SEQEND
  8
0
  0
POLYLINE
  8
EBENE_1
  6
CONTINUOUS
 66
     1
 40
0.003000
 41
0.003000
  0
VERTEX
  8
EBENE_1
  6
CONTINUOUS
 10
2.595169
 20
-2.643122
  0
VERTEX
  8
EBENE_1
  6
CONTINUOUS
 10
2.597949
 20
-2.643122
  0
SEQEND
  8
0
  0
POLYLINE
  8
EBENE_1
  6
CONTINUOUS
 66
     1
 40
0.003000
 41
0.003000
  0
VERTEX
  8
EBENE_1
  6
CONTINUOUS
 10
2.491433
 20
-2.639055
  0
VERTEX
  8
EBENE_1
  6
CONTINUOUS
 10
2.494642
 20
-2.639055
  0
SEQEND
  8
0
  0
POLYLINE
  8
EBENE_1
  6
CONTINUOUS
 66
     1
 40
0.003000
 41
0.003000
  0
VERTEX
  8
EBENE_1
  6
CONTINUOUS
 10
2.494642
 20
-2.639055
  0
VERTEX
  8
EBENE_1
  6
CONTINUOUS
 10
2.499776
 20
-2.645689
  0
SEQEND
  8
0
  0
POLYLINE
  8
EBENE_1
  6
CONTINUOUS
 66
     1
 40
0.003000
 41
0.003000
  0
VERTEX
  8
EBENE_1
  6
CONTINUOUS
 10
2.499776
 20
-2.645689
  0
VERTEX
  8
EBENE_1
  6
CONTINUOUS
 10
2.504909
 20
-2.639055
  0
SEQEND
  8
0
  0
POLYLINE
  8
EBENE_1
  6
CONTINUOUS
 66
     1
 40
0.003000
 41
0.003000
  0
VERTEX
  8
EBENE_1
  6
CONTINUOUS
 10
2.504909
 20
-2.639055
  0
VERTEX
  8
EBENE_1
  6
CONTINUOUS
 10
2.507906
 20
-2.639055
  0
SEQEND
  8
0
  0
POLYLINE
  8
EBENE_1
  6
CONTINUOUS
 66
     1
 40
0.003000
 41
0.003000
  0
VERTEX
  8
EBENE_1
  6
CONTINUOUS
 10
2.507906
 20
-2.639055
  0
VERTEX
  8
EBENE_1
  6
CONTINUOUS
 10
2.500843
 20
-2.647177
  0
SEQEND
  8
0
  0
POLYLINE
  8
EBENE_1
  6
CONTINUOUS
 66
     1
 40
0.003000
 41
0.003000
  0
VERTEX
  8
EBENE_1
  6
CONTINUOUS
 10
2.500843
 20
-2.647177
  0
VERTEX
  8
EBENE_1
  6
CONTINUOUS
 10
2.500843
 20
-2.652311
  0
SEQEND
  8
0
  0
POLYLINE
  8
EBENE_1
  6
CONTINUOUS
 66
     1
 40
0.003000
 41
0.003000
  0
VERTEX
  8
EBENE_1
  6
CONTINUOUS
 10
2.500843
 20
-2.652311
  0
VERTEX
  8
EBENE_1
  6
CONTINUOUS
 10
2.498496
 20
-2.652311
  0
SEQEND
  8
0
  0
POLYLINE
  8
EBENE_1
  6
CONTINUOUS
 66
     1
 40
0.003000
 41
0.003000
  0
VERTEX
  8
EBENE_1
  6
CONTINUOUS
 10
2.498496
 20
-2.652311
  0
VERTEX
  8
EBENE_1
  6
CONTINUOUS
 10
2.498496
 20
-2.647177
  0
SEQEND
  8
0
  0
POLYLINE
  8
EBENE_1
  6
CONTINUOUS
 66
     1
 40
0.003000
 41
0.003000
  0
VERTEX
  8
EBENE_1
  6
CONTINUOUS
 10
2.498496
 20
-2.647177
  0
VERTEX
  8
EBENE_1
  6
CONTINUOUS
 10
2.491433
 20
-2.639055
  0
SEQEND
  8
0
  0
POLYLINE
  8
EBENE_1
  6
CONTINUOUS
 66
     1
 40
0.003000
 41
0.003000
  0
VERTEX
  8
EBENE_1
  6
CONTINUOUS
 10
2.542551
 20
-2.639055
  0
VERTEX
  8
EBENE_1
  6
CONTINUOUS
 10
2.529075
 20
-2.639055
  0
SEQEND
  8
0
  0
POLYLINE
  8
EBENE_1
  6
CONTINUOUS
 66
     1
 40
0.003000
 41
0.003000
  0
VERTEX
  8
EBENE_1
  6
CONTINUOUS
 10
2.529075
 20
-2.639055
  0
VERTEX
  8
EBENE_1
  6
CONTINUOUS
 10
2.529075
 20
-2.640555
  0
SEQEND
  8
0
  0
POLYLINE
  8
EBENE_1
  6
CONTINUOUS
 66
     1
 40
0.003000
 41
0.003000
  0
VERTEX
  8
EBENE_1
  6
CONTINUOUS
 10
2.529075
 20
-2.640555
  0
VERTEX
  8
EBENE_1
  6
CONTINUOUS
 10
2.534850
 20
-2.640555
  0
SEQEND
  8
0
  0
POLYLINE
  8
EBENE_1
  6
CONTINUOUS
 66
     1
 40
0.003000
 41
0.003000
  0
VERTEX
  8
EBENE_1
  6
CONTINUOUS
 10
2.534850
 20
-2.640555
  0
VERTEX
  8
EBENE_1
  6
CONTINUOUS
 10
2.534850
 20
-2.652531
  0
SEQEND
  8
0
  0
POLYLINE
  8
EBENE_1
  6
CONTINUOUS
 66
     1
 40
0.003000
 41
0.003000
  0
VERTEX
  8
EBENE_1
  6
CONTINUOUS
 10
2.534850
 20
-2.652531
  0
VERTEX
  8
EBENE_1
  6
CONTINUOUS
 10
2.536988
 20
-2.652531
  0
SEQEND
  8
0
  0
POLYLINE
  8
EBENE_1
  6
CONTINUOUS
 66
     1
 40
0.003000
 41
0.003000
  0
VERTEX
  8
EBENE_1
  6
CONTINUOUS
 10
2.536988
 20
-2.652531
  0
VERTEX
  8
EBENE_1
  6
CONTINUOUS
 10
2.536988
 20
-2.640555
  0
SEQEND
  8
0
  0
POLYLINE
  8
EBENE_1
  6
CONTINUOUS
 66
     1
 40
0.003000
 41
0.003000
  0
VERTEX
  8
EBENE_1
  6
CONTINUOUS
 10
2.536988
 20
-2.640555
  0
VERTEX
  8
EBENE_1
  6
CONTINUOUS
 10
2.542551
 20
-2.640555
  0
SEQEND
  8
0
  0
POLYLINE
  8
EBENE_1
  6
CONTINUOUS
 66
     1
 40
0.003000
 41
0.003000
  0
VERTEX
  8
EBENE_1
  6
CONTINUOUS
 10
2.542551
 20
-2.640555
  0
VERTEX
  8
EBENE_1
  6
CONTINUOUS
 10
2.542551
 20
-2.639055
  0
SEQEND
  8
0
  0
POLYLINE
  8
EBENE_1
  6
CONTINUOUS
 66
     1
 40
0.003000
 41
0.003000
  0
VERTEX
  8
EBENE_1
  6
CONTINUOUS
 10
2.548118
 20
-2.640555
  0
VERTEX
  8
EBENE_1
  6
CONTINUOUS
 10
2.548118
 20
-2.644831
  0
SEQEND
  8
0
  0
POLYLINE
  8
EBENE_1
  6
CONTINUOUS
 66
     1
 40
0.003000
 41
0.003000
  0
VERTEX
  8
EBENE_1
  6
CONTINUOUS
 10
2.548118
 20
-2.644831
  0
VERTEX
  8
EBENE_1
  6
CONTINUOUS
 10
2.556890
 20
-2.644831
  0
SEQEND
  8
0
  0
POLYLINE
  8
EBENE_1
  6
CONTINUOUS
 66
     1
 40
0.003000
 41
0.003000
  0
VERTEX
  8
EBENE_1
  6
CONTINUOUS
 10
2.556890
 20
-2.644831
  0
VERTEX
  8
EBENE_1
  6
CONTINUOUS
 10
2.556890
 20
-2.646110
  0
SEQEND
  8
0
  0
TEXT
  8
EBENE_1
 10
3.160984
 20
-2.905500
 40
0.104077
  1
CyFit
 41
1.000000
  7
SN0
 71
     0
 72
     5
 11
3.615620
 21
-2.905500
  0
TEXT
  8
EBENE_1
 10
3.364791
 20
-3.233504
 40
0.074275
  1
QC/M... - QC/F...
 41
1.000000
  7
SN0
 71
     0
 72
     5
 11
4.053497
 21
-3.233504
  0
TEXT
  8
EBENE_1
 10
2.513169
 20
-3.233504
 40
0.074275
  1
AZ1585
 41
1.000000
  7
SN0
 71
     0
 72
     5
 11
2.918290
 21
-3.233504
  0
TEXT
  8
EBENE_1
 10
3.166992
 20
-2.997091
 40
0.051809
  1
Standard
 41
1.000000
  7
SN0
 71
     0
 72
     5
 11
3.591119
 21
-2.997091
  0
POLYLINE
  8
EBENE_1
  6
CONTINUOUS
 66
     1
 40
0.003000
 41
0.003000
  0
VERTEX
  8
EBENE_1
  6
CONTINUOUS
 10
2.556890
 20
-2.646110
  0
VERTEX
  8
EBENE_1
  6
CONTINUOUS
 10
2.548118
 20
-2.646110
  0
SEQEND
  8
0
  0
POLYLINE
  8
EBENE_1
  6
CONTINUOUS
 66
     1
 40
0.003000
 41
0.003000
  0
VERTEX
  8
EBENE_1
  6
CONTINUOUS
 10
2.548118
 20
-2.646110
  0
VERTEX
  8
EBENE_1
  6
CONTINUOUS
 10
2.548118
 20
-2.650602
  0
SEQEND
  8
0
  0
POLYLINE
  8
EBENE_1
  6
CONTINUOUS
 66
     1
 40
0.003000
 41
0.003000
  0
VERTEX
  8
EBENE_1
  6
CONTINUOUS
 10
2.548118
 20
-2.650602
  0
VERTEX
  8
EBENE_1
  6
CONTINUOUS
 10
2.557736
 20
-2.650602
  0
SEQEND
  8
0
  0
POLYLINE
  8
EBENE_1
  6
CONTINUOUS
 66
     1
 40
0.003000
 41
0.003000
  0
VERTEX
  8
EBENE_1
  6
CONTINUOUS
 10
2.557736
 20
-2.650602
  0
VERTEX
  8
EBENE_1
  6
CONTINUOUS
 10
2.557736
 20
-2.652311
  0
SEQEND
  8
0
  0
POLYLINE
  8
EBENE_1
  6
CONTINUOUS
 66
     1
 40
0.003000
 41
0.003000
  0
VERTEX
  8
EBENE_1
  6
CONTINUOUS
 10
2.557736
 20
-2.652311
  0
VERTEX
  8
EBENE_1
  6
CONTINUOUS
 10
2.545760
 20
-2.652311
  0
SEQEND
  8
0
  0
POLYLINE
  8
EBENE_1
  6
CONTINUOUS
 66
     1
 40
0.003000
 41
0.003000
  0
VERTEX
  8
EBENE_1
  6
CONTINUOUS
 10
2.545760
 20
-2.652311
  0
VERTEX
  8
EBENE_1
  6
CONTINUOUS
 10
2.545760
 20
-2.639055
  0
SEQEND
  8
0
  0
POLYLINE
  8
EBENE_1
  6
CONTINUOUS
 66
     1
 40
0.003000
 41
0.003000
  0
VERTEX
  8
EBENE_1
  6
CONTINUOUS
 10
2.545760
 20
-2.639055
  0
VERTEX
  8
EBENE_1
  6
CONTINUOUS
 10
2.546398
 20
-2.639055
  0
SEQEND
  8
0
  0
POLYLINE
  8
EBENE_1
  6
CONTINUOUS
 66
     1
 40
0.003000
 41
0.003000
  0
VERTEX
  8
EBENE_1
  6
CONTINUOUS
 10
2.546398
 20
-2.639055
  0
VERTEX
  8
EBENE_1
  6
CONTINUOUS
 10
2.547689
 20
-2.639055
  0
SEQEND
  8
0
  0
POLYLINE
  8
EBENE_1
  6
CONTINUOUS
 66
     1
 40
0.003000
 41
0.003000
  0
VERTEX
  8
EBENE_1
  6
CONTINUOUS
 10
2.547689
 20
-2.639055
  0
VERTEX
  8
EBENE_1
  6
CONTINUOUS
 10
2.549614
 20
-2.639055
  0
SEQEND
  8
0
  0
POLYLINE
  8
EBENE_1
  6
CONTINUOUS
 66
     1
 40
0.003000
 41
0.003000
  0
VERTEX
  8
EBENE_1
  6
CONTINUOUS
 10
2.549614
 20
-2.639055
  0
VERTEX
  8
EBENE_1
  6
CONTINUOUS
 10
2.551752
 20
-2.639055
  0
SEQEND
  8
0
  0
POLYLINE
  8
EBENE_1
  6
CONTINUOUS
 66
     1
 40
0.003000
 41
0.003000
  0
VERTEX
  8
EBENE_1
  6
CONTINUOUS
 10
2.551752
 20
-2.639055
  0
VERTEX
  8
EBENE_1
  6
CONTINUOUS
 10
2.554102
 20
-2.639055
  0
SEQEND
  8
0
  0
POLYLINE
  8
EBENE_1
  6
CONTINUOUS
 66
     1
 40
0.003000
 41
0.003000
  0
VERTEX
  8
EBENE_1
  6
CONTINUOUS
 10
2.554102
 20
-2.639055
  0
VERTEX
  8
EBENE_1
  6
CONTINUOUS
 10
2.555811
 20
-2.639055
  0
SEQEND
  8
0
  0
POLYLINE
  8
EBENE_1
  6
CONTINUOUS
 66
     1
 40
0.003000
 41
0.003000
  0
VERTEX
  8
EBENE_1
  6
CONTINUOUS
 10
2.555811
 20
-2.639055
  0
VERTEX
  8
EBENE_1
  6
CONTINUOUS
 10
2.557307
 20
-2.639055
  0
SEQEND
  8
0
  0
POLYLINE
  8
EBENE_1
  6
CONTINUOUS
 66
     1
 40
0.003000
 41
0.003000
  0
VERTEX
  8
EBENE_1
  6
CONTINUOUS
 10
2.557307
 20
-2.639055
  0
VERTEX
  8
EBENE_1
  6
CONTINUOUS
 10
2.557736
 20
-2.639055
  0
SEQEND
  8
0
  0
POLYLINE
  8
EBENE_1
  6
CONTINUOUS
 66
     1
 40
0.003000
 41
0.003000
  0
VERTEX
  8
EBENE_1
  6
CONTINUOUS
 10
2.557736
 20
-2.639055
  0
VERTEX
  8
EBENE_1
  6
CONTINUOUS
 10
2.557736
 20
-2.640555
  0
SEQEND
  8
0
  0
POLYLINE
  8
EBENE_1
  6
CONTINUOUS
 66
     1
 40
0.003000
 41
0.003000
  0
VERTEX
  8
EBENE_1
  6
CONTINUOUS
 10
2.557736
 20
-2.640555
  0
VERTEX
  8
EBENE_1
  6
CONTINUOUS
 10
2.548118
 20
-2.640555
  0
SEQEND
  8
0
  0
POLYLINE
  8
EBENE_1
  6
CONTINUOUS
 66
     1
 40
0.003000
 41
0.003000
  0
VERTEX
  8
EBENE_1
  6
CONTINUOUS
 10
2.562016
 20
-2.652531
  0
VERTEX
  8
EBENE_1
  6
CONTINUOUS
 10
2.562016
 20
-2.638846
  0
SEQEND
  8
0
  0
POLYLINE
  8
EBENE_1
  6
CONTINUOUS
 66
     1
 40
0.003000
 41
0.003000
  0
VERTEX
  8
EBENE_1
  6
CONTINUOUS
 10
2.562016
 20
-2.638846
  0
VERTEX
  8
EBENE_1
  6
CONTINUOUS
 10
2.565441
 20
-2.638846
  0
SEQEND
  8
0
  0
POLYLINE
  8
EBENE_1
  6
CONTINUOUS
 66
     1
 40
0.003000
 41
0.003000
  0
VERTEX
  8
EBENE_1
  6
CONTINUOUS
 10
2.565441
 20
-2.638846
  0
VERTEX
  8
EBENE_1
  6
CONTINUOUS
 10
2.570354
 20
-2.650394
  0
SEQEND
  8
0
  0
POLYLINE
  8
EBENE_1
  6
CONTINUOUS
 66
     1
 40
0.003000
 41
0.003000
  0
VERTEX
  8
EBENE_1
  6
CONTINUOUS
 10
2.570354
 20
-2.650394
  0
VERTEX
  8
EBENE_1
  6
CONTINUOUS
 10
2.575492
 20
-2.638846
  0
SEQEND
  8
0
  0
POLYLINE
  8
EBENE_1
  6
CONTINUOUS
 66
     1
 40
0.003000
 41
0.003000
  0
VERTEX
  8
EBENE_1
  6
CONTINUOUS
 10
2.575492
 20
-2.638846
  0
VERTEX
  8
EBENE_1
  6
CONTINUOUS
 10
2.578917
 20
-2.638846
  0
SEQEND
  8
0
  0
POLYLINE
  8
EBENE_1
  6
CONTINUOUS
 66
     1
 40
0.003000
 41
0.003000
  0
VERTEX
  8
EBENE_1
  6
CONTINUOUS
 10
2.578917
 20
-2.638846
  0
VERTEX
  8
EBENE_1
  6
CONTINUOUS
 10
2.578917
 20
-2.652531
  0
SEQEND
  8
0
  0
POLYLINE
  8
EBENE_1
  6
CONTINUOUS
 66
     1
 40
0.003000
 41
0.003000
  0
VERTEX
  8
EBENE_1
  6
CONTINUOUS
 10
2.578917
 20
-2.652531
  0
VERTEX
  8
EBENE_1
  6
CONTINUOUS
 10
2.576350
 20
-2.652531
  0
SEQEND
  8
0
  0
POLYLINE
  8
EBENE_1
  6
CONTINUOUS
 66
     1
 40
0.003000
 41
0.003000
  0
VERTEX
  8
EBENE_1
  6
CONTINUOUS
 10
2.576350
 20
-2.652531
  0
VERTEX
  8
EBENE_1
  6
CONTINUOUS
 10
2.576350
 20
-2.641402
  0
SEQEND
  8
0
  0
POLYLINE
  8
EBENE_1
  6
CONTINUOUS
 66
     1
 40
0.003000
 41
0.003000
  0
VERTEX
  8
EBENE_1
  6
CONTINUOUS
 10
2.576350
 20
-2.641402
  0
VERTEX
  8
EBENE_1
  6
CONTINUOUS
 10
2.571642
 20
-2.652531
  0
SEQEND
  8
0
  0
POLYLINE
  8
EBENE_1
  6
CONTINUOUS
 66
     1
 40
0.003000
 41
0.003000
  0
VERTEX
  8
EBENE_1
  6
CONTINUOUS
 10
2.571642
 20
-2.652531
  0
VERTEX
  8
EBENE_1
  6
CONTINUOUS
 10
2.569287
 20
-2.652531
  0
SEQEND
  8
0
  0
POLYLINE
  8
EBENE_1
  6
CONTINUOUS
 66
     1
 40
0.003000
 41
0.003000
  0
VERTEX
  8
EBENE_1
  6
CONTINUOUS
 10
2.569287
 20
-2.652531
  0
VERTEX
  8
EBENE_1
  6
CONTINUOUS
 10
2.564583
 20
-2.641402
  0
SEQEND
  8
0
  0
POLYLINE
  8
EBENE_1
  6
CONTINUOUS
 66
     1
 40
0.003000
 41
0.003000
  0
VERTEX
  8
EBENE_1
  6
CONTINUOUS
 10
2.564583
 20
-2.641402
  0
VERTEX
  8
EBENE_1
  6
CONTINUOUS
 10
2.564583
 20
-2.652531
  0
SEQEND
  8
0
  0
POLYLINE
  8
EBENE_1
  6
CONTINUOUS
 66
     1
 40
0.003000
 41
0.003000
  0
VERTEX
  8
EBENE_1
  6
CONTINUOUS
 10
2.564583
 20
-2.652531
  0
VERTEX
  8
EBENE_1
  6
CONTINUOUS
 10
2.562016
 20
-2.652531
  0
SEQEND
  8
0
  0
TEXT
  8
EBENE_1
 10
2.849843
 20
-2.745402
 40
0.051809
  1
Name
 41
1.000000
  7
SN0
 71
     0
 72
     5
 11
3.047902
 21
-2.745402
  0
TEXT
  8
EBENE_1
 10
3.091421
 20
-2.745402
 40
0.051809
  1
Benennung
 41
1.000000
  7
SN0
 71
     0
 72
     5
 11
3.572065
 21
-2.745402
  0
TEXT
  8
EBENE_1
 10
3.091421
 20
-2.476469
 40
0.051809
  1
Maßstab  1:1
 41
1.000000
  7
SN0
 71
     0
 72
     5
 11
3.629582
 21
-2.476469
  0
TEXT
  8
EBENE_1
 10
2.774091
 20
-2.476469
 40
0.051809
  1
Komm.-Nr.:
 41
1.000000
  7
SN0
 71
     0
 72
     5
 11
3.171209
 21
-2.476469
  0
TEXT
  8
EBENE_1
 10
1.434102
 20
-2.476469
 40
0.051809
  1
Kunde: 
 41
1.000000
  7
SN0
 71
     0
 72
     5
 11
1.745696
 21
-2.476469
  0
TEXT
  8
EBENE_1
 10
3.091421
 20
-3.101496
 40
0.051809
  1
Zeichnungsnummer
 41
1.000000
  7
SN0
 71
     0
 72
     5
 11
3.967683
 21
-3.101496
  0
TEXT
  8
EBENE_1
 10
4.362764
 20
-3.101496
 40
0.051809
  1
Blatt
 41
1.000000
  7
SN0
 71
     0
 72
     5
 11
4.617340
 21
-3.101496
  0
TEXT
  8
EBENE_1
 10
4.482059
 20
-3.244728
 40
0.051809
  1
Bl.
 41
1.000000
  7
SN0
 71
     0
 72
     5
 11
4.595593
 21
-3.244728
  0
TEXT
  8
EBENE_1
 10
3.091421
 20
-3.317760
 40
0.051809
  1
Ers. f.:
 41
1.000000
  7
SN0
 71
     0
 72
     5
 11
3.403515
 21
-3.317760
  0
TEXT
  8
EBENE_1
 10
3.970709
 20
-3.317760
 40
0.051809
  1
Ers. d.:
 41
1.000000
  7
SN0
 71
     0
 72
     5
 11
4.282802
 21
-3.317760
  0
TEXT
  8
EBENE_1
 10
2.347358
 20
-3.101496
 40
0.051809
  1
Identnummer
 41
1.000000
  7
SN0
 71
     0
 72
     5
 11
2.941036
 21
-3.101496
  0
TEXT
  8
EBENE_1
 10
3.091421
 20
-2.617429
 40
0.051809
  1
CyTec - Schnellsteck-Kupplungssystem
 41
1.000000
  7
SN0
 71
     0
 72
     5
 11
4.901963
 21
-2.617429
  0
ENDSEC
  0
EOF
